Club del blues local

Viejas Locas

Tom: G
Intro 
 
D - C - G 
 
G                  C                       G 
Anoche hubo fiesta en el club del blues local 
C                                          G 
Anoche hubo fiesta en el club del blues local 
D                   C                  C 
Sentados en una mesa con amigos de verdad 
 
G                C               G 
Estabamos tomando vino fino natural 
C                                G 
Estabamos tomando vino fino natural 
D                         C                        G 
Que bueno estuvo la fiesta en el club del blues local 
 
1º Solo de guitarra 
 
C                                 G 
Estabamos fumando una planta natural 
 
2º Solo de guitarra 
 
G                     C                  G 
Recorde que me dijiste que querias regresar 
G                     C                  G 
Recorde que me dijiste que querias regresar 
D                          C                        G 
Siempre te estare esperando en el club del blues local 
 
Solo de Armónica * 
 
G                 C                        G 
Anoche hubo fiesta en el club del blues local 
C                                          G 
Anoche hubo fiesta en el club del blues local 
D                   C                  G 
Sentados en una mesa con amigos de verdad 
 
Terminacion con Armonica. 
 
 
 
Riff - G 
1|------------------------ 
2|------------------------ 
3|------------------------ 
4|--5-5---3-3------------- 
5|-----------5-5---------- 
6|------------------------ 
 
Riff - C 
1|------------------------ 
2|------------------------ 
3|--5-5---3-3------------- 
4|-----------5-5---------- 
5|------------------------ 
6|------------------------ 
 
Riff - D 
1|------------------------ 
2|------------------------ 
3|--7-7---5-5------------- 
4|-----------7-7---------- 
5|------------------------ 
6|------------------------ 
 
Nota: La armonica creo q esta en Do (C). Los arreglos que hace suenan bien  
aspirando el 1,2,3,4 y 5, manejate dentro de ese rango. 
*: (4) (5) con tremolo bien rapido 

Compartilhe esta música: novo

QR Code
Copiar