Bailarina

Ventre

Tom: G
G|------------------------|--------------------------------| 
D|------------------------|--------------------------------| 
A|--3---5----3------2---5-|--3---5--3---5----3------2---5--| 
E|----3----2---2--0---0---|----3------3----2---2--0---0----| 


G|------------------------|--------------------------------------| 
D|------------------------|--------------------------------------| 
A|--3---5----3------2-----|--3---5--3---5--3---5----3------2-----| 
E|----3----2---2--0---0-5-|----3------3------3----2---2--0----0-0| 
G6 F#11 Em Feito bailarina, pus o tempo pra dançar G6 F#11 Em Forcei a porta de onde eu queria entrar G6 F#11 Em Nem vi o quanto que eu deixava para trás (Am6/C) Am6/C Quero um novo começo Am6 Iniciar assim, do nada Am6/C Quero a surpresa do novo Am6 Em7(9) (Em7 ) E o cheiro de mofo da, mudança Am6/C Am6 E quando esse dia chegar ( G6 F#11 Em ) G6 F#11 Em Peguei o meu medo e pus na mala pra sair G6 F#11 Em Se fiquei mais um pouco era pra me despedir G6 F#11 Em Só entendo agora o quanto eu desejei Am6/C Um novo começo Am6 Iniciar assim do nada Am6/C É só não se importar Am6 Em7(9) (Em7 ) Com cada vaso que quebrar Am6/C Am6 Em7(9) (Em7 ) E quando esse dia chegar ( G6 F#11 Em6 ) Solo C7 A9(7) Em F#4(7/9-)
E|--------------------------------------------------------------------| 
B|--------------------------------------------------------------------| 
G|--/9------------------/9-----------------------7-----------------9--| 
D|------/5------------------/5---------------5h7---------------5h7----| 
A|----------7--7-7b9r7----------7-7b9-7--5h7--------7b9-7--5h7--------| 
E|--------------------------------------------------------------------| 


E|---------------------------------------------------------------------------------------------| 
B|----8-10b11r10----8-10b11r10-8-11-10-8-10----8-10b11r10-----8-10-8---10-8---8-10-8-----------| 
G|--9-------------9--------------------------9--------------9--------9------9--------9--9b10r9-| 
D|---------------------------------------------------------------------------------------------| 
A|---------------------------------------------------------------------------------------------| 
E|---------------------------------------------------------------------------------------------| 


E|----------------------------------------------| 
B|--10b11r10------------------------------------| 
G|------------9b10r9----------------------------| 
D|--------------------7b8r7---------------------| 
A|---------------------------7b9r7--7--5h7p7----| 
E|-------------------------------------------7--|
(C C7M/B A9 G6 ) Deixa a bailarina dançar Que o sonho é dela e não seu Corra atrás ( G6 F#11 Em )

Compartilhe esta música: novo

QR Code
Copiar