Rainbow Demon

Uriah Heep

Tom: Am
Intro 

e|-0-------------0-----------0-------------0---------------------------------------|   (x2) 
B|-1-------------1-----------1-------------1---------------------------------------| 
G|-2-------------2-----------2-------------2---------------------------------------| 
D|-2-------------2-----------2-------------2---------------------------------------| 
A|-0-0-0-0-0-3-0-0-0-3-3-2---0-0-0-0-0-3-0-0-0-3-3-2-------------------------------| 
E|--------3-------------------------3----------------------------------------------|
verse 1 Am G There rides the rainbow demon on his horse of crimson fire Am G Black shadows are following closely on the heels of his desire
e|-0-------------0-----------0-------------0---------------------------------------|    
B|-1-------------1-----------1-------------1---------------------------------------| 
G|-2-------------2-----------2-------------2---------------------------------------| 
D|-2-------------2-----------2-------------2---------------------------------------| 
A|-0-0-0-0-0-3-0-0-0-3-3-2---0-0-0-0-0-3-0-0-0-3-3-2-------------------------------| 
E|--------3-------------------------3----------------------------------------------|
verse 2 Am G Ridin' on in the mist of morning, no one dared to stand in his way Am G Possessed by some distant calling, riding on through night and day
e|-0-------------0-----------0-------------0---------------------------------------|    
B|-1-------------1-----------1-------------1---------------------------------------| 
G|-2-------------2-----------2-------------2---------------------------------------| 
D|-2-------------2-----------2-------------2---------------------------------------| 
A|-0-0-0-0-0-3-0-0-0-3-3-2---0-0-0-0-0-3-0-0-0-3-3-2-------------------------------| 
E|--------3-------------------------3----------------------------------------------|
C D Am G Am Rainbow demon, pick up your heart and run C D Am G Am Rainbow demon lives for his sword and his gun
e|-0-------------0-----------0-------------0---------------------------------------|    
B|-1-------------1-----------1-------------1---------------------------------------| 
G|-2-------------2-----------2-------------2---------------------------------------| 
D|-2-------------2-----------2-------------2---------------------------------------| 
A|-0-0-0-0-0-3-0-0-0-3-3-2---0-0-0-0-0-3-0-0-0-3-3-2-------------------------------| 
E|--------3-------------------------3----------------------------------------------| 
verse 3 Am G Ridin' on in the mist of morning, no one dared to stand in his way Am G Possessed by some distant calling, riding on through night and day
C D Am G Am Rainbow demon, pick up your heart and run C D Am G Am Rainbow demon lives for his sword and his gun
e|-0-------------0-----------0-------------0---------------------------------------|   (x2)    
B|-1-------------1-----------1-------------1---------------------------------------| 
G|-2-------------2-----------2-------------2---------------------------------------| 
D|-2-------------2-----------2-------------2---------------------------------------| 
A|-0-0-0-0-0-3-0-0-0-3-3-2---0-0-0-0-0-3-0-0-0-3-3-2-------------------------------| 
E|--------3-------------------------3----------------------------------------------| 
C D Am G Am Rainbow demon, pick up your heart and run C D Am G Am Rainbow demon lives for his sword and his gun C D Am G Am Rainbow demon, pick up your heart and run C D Am G Am Rainbow demon lives for his sword and his gun C D Am G Am Rainbow demon, pick up your heart and run C D Am G Am Rainbow demon lives for his sword and his gun

Compartilhe esta música: novo

QR Code
Copiar