Vivir Junto A Ti

Thalía

Tom: B
E|---------------------------| 
B|---------------------------| 
G|--11-11-11----9-9-----8-8--| 
D|---------------------------| 
A|---------------------------| 
E|---------------------------| 


E|---------------------------| 
B|---------------------------| 
G|--8-8-8----6-6-----11------| 
D|----------------------9----| 
A|---------------------------| 
E|---------------------------| 


E|---------------------------| 
B|---------------------------| 
G|------6-8--------6-8-8-----| 
D|--9-9-----8--9-9-----------| 
A|---------------------------| 
E|---------------------------| 
B E G#m Si me quedar solo un mes para vivir E F# B Si me digieran que si agota mis días E G#m Si me quedar a poco ritmo por latir E [email protected] F#M A dónde mis pasos me llevarian E Solo puedo imaginar B F# El vivirlos junto a ti B Todos los amaneceres G#m E Las sonrisas que quedan en mi G#m F# Los quiero vivir junto a ti B La ternura de tus besos G#m E Las tardes de lluvia y las de sol G#m F# Las quiero vivir junto a ti G#m F# Quedarme en tu abrazo Dormiendo hasta el fin G#m E Mi último suspiro G#m F# B Lo quiero vivir junto a ti B E G#m Y te sostengo la promesa de seguir E F# B Viviendo contigo toda la vida E G#m Sabes que siempre seguiré dentro de ti E F# G#m Hasta encontranos de nuevo algun dia E Solo puedo imaginar B F# El quedarme junto a ti B Todos los amaneceres G#m E Las sonrisas que quedan en mi G#m F# Los quiero vivir junto a ti B La ternura de tus besos G#m E Las tardes de lluvia y las de sol G#m F# Las quiero vivir junto a ti G#m F# Quedarme en tu abrazo Dormiendo hasta el fin G#m E Mi último suspiro G#m F# B Lo quiero vivir junto a ti

Compartilhe esta música: novo

QR Code
Copiar