Inveja Do Seu Namorado

Tayrone Cigano

Tom: Dm
Intro: Dm  Bb  F  C  A 

E|------------------------------------------|                                           
B|------------3-6p5-3---6p5-3---------------|                  
G|--------------------5-------5-5/7-7-------|                
D|------------------------------------------|                                           
A|-------0-0--------------------------------|                                      
E|-0h1-3------------------------------------|                                          

                                                     

E|------------------------------------------|                                           
B|-3-3-3-5-5-5-6-6-6-8-8-8-10-10-10---------|                                          
G|------------------------------------------|                                           
D|------------------------------------------|                                           
A|------------------------------------------|                                           
E|------------------------------------------|                                           

                                                     

E|-10-11-10---------------------------------|                                           
B|-----------10-11p10-8-10-11p10-8-6-6/8-8--|                                
G|------------------------------------------|                                           
D|------------------------------------------|                                           
A|------------------------------------------|                                           
E|------------------------------------------|                                           

                                                   

E|--------------0h1-------------------------|             
B|-6h8p6-5--1/3-----1/3---------------------|                                     
G|------------------------------------------|                                           
D|------------------------------------------|                                           
A|------------------------------------------|                                           
E|------------------------------------------|
Dm Bb Há muito tempo que eu quero você F Tenho inveja do seu namorado C A Dm Aquele palhaço, não sabe te dar amor Bb O que eu preciso pra te convencer F Te dou a prova de quem já te ama C A É só dizer Dm Te dou o céu para voar Bb Uma casa à beira mar F A senha do meu cartão C A senha do celular Dm Te dou cama, dou comida Bb Te entrego a minha vida F Passo tudo pro seu nome C Só não largo a bebida

Compartilhe esta música: novo

QR Code
Copiar