Não Vou Desistir (part. Matheus Aguiar)

Shirley Carvalhaes

Tom: Em
Intro: Em  G/B  C  G  B7(4)  B7 
       Em  G/B  C  D  F#m7(5-)  B7 

Primeira Parte 

     Em                          C 
Mais uma noite passa, eu vou me levantar 
        D                   F#m7(5-)  B7 
Uma estrada perigosa eu vou en___frentar 
    Em                          Am 
Perguntas sem respostas tentam me abater 
      D                               F#m7(5-)  B7 
Mas existe alguém em mim que vai me pro______teger 

   Am         D          G    D/F#  Em 
Envia os Seus anjos, de noite É a  Luz 
   Am                    B7(4)  B7 
O nome desse alguém é Jesus 
   Am         D          G    D/F#  Em 
Envia os Seus anjos, de noite É a  Luz 
   Am            B7      Em (Riff 1) 
O nome desse alguém é Jesus 

Em G/B C D Eu não vou desistir, eu não vou parar F#m7(5-) B7 Em Posso estar na prova mas a mim foi feita uma promessa D/F# G C D Eu não vou desistir, eu não vou parar F#m7(5-) B7 Posso estar na prova mas a mim foi feita uma promessa
Base Solo C D Em C G/B A B7(4) B7
Solo 

E|----------------------------------------------------------| 
B|-----------10\8p7-10-7------------------------------------| 
G|----------------------------------------------------------| 
D|-7/9h12-9-------------------------------------------------| 
A|----------------------------------------------------------| 
E|------------------------12\-------------------------------| 
Primeira Parte Em C Mais uma noite passa, eu vou me levantar D F#m7(5-) B7 Uma estrada perigosa eu vou en___frentar Em Am Perguntas sem respostas tentam me abater D F#m7(5-) B7 Mas existe alguém em mim que vai me pro______teger Am D G D/F# Em Envia os Seus anjos, de noite É a Luz Am B7(4) B7 O nome desse alguém é Jesus Am D G D/F# Em Envia os Seus anjos, de noite É a Luz Am B7 (Riff 2) O nome desse alguém é Jesus
Em (Em D C G/B) C D Eu não vou de_sis___tir, eu não vou parar F#m7(5-) B7 Em Posso estar na prova mas a mim foi feita uma promessa D/F# G C D Eu não vou desistir, eu não vou parar F#m7(5-) B7 (Frase) Posso estar na prova mas a mim foi feita uma promessa
Segunda Parte Em C Eu não vou parar, não vou desistir. Eu não vou parar, não vou desistir Am B7 Eu não vou parar, não vou desistir, não, não, não Em D C Eu não vou parar, não vou desistir. Eu não vou parar, não vou desistir Am B7 Eu não vou parar, não vou desistir, não, não, não Em Deus está entrando agora em teus caminhos C Retirando todas pedras e espinhos Am Olhe para frente e não pare, não F#m7(5-) (Riff 3) Pois se você cair Ele segura em tuas mãos Em D Deus está entrando agora em teus caminhos C Retirando todas pedras e espinhos F#m7(5-) Olhe para frente e não pare, não B7 (Riff 4) Pois se você cair Ele segura em tua mão
Em D C D Não vou desistir, eu não vou parar F#m7(5-) B7 Em Posso estar na prova mas a mim foi feita uma promessa G/B C D Eu não vou desistir, eu não vou parar F#m7(5-) B7 Em C Posso estar na prova mas a mim foi feita uma promessa Em C Foi feita uma promessa B7 (Riff 5) Foi feita uma promessa
Riff 1: 


E|----------------------------------------------------------| 
B|----------------------------------------------------------| 
G|----------------------------------------------------------| 
D|-2-4-5-4-2-0----------------------------------------------| 
A|----------------------------------------------------------| 
E|----------------------------------------------------------| 


Riff 2: 


E|----------------------------------------------------------| 
B|----------------------------------------------------------| 
G|----------------------------------------------------------| 
D|----------------------------------------------------------| 
A|-2-0------------------------------------------------------| 
E|-----3-2--------------------------------------------------| 


Frase: 


E|----------------------------------------------------------| 
B|-------------------------------------5---5-8-5---5--------| 
G|-------------------------4---4-7-4-7---7-------7----------| 
D|-------4---4-5-4-5-7-5-7---7------------------------------| 
A|-7-5-7---7------------------------------------------------| 
E|----------------------------------------------------------| 


Riff 3: 


E|----------------------------------------------------------| 
B|----------------------------------------------------------| 
G|----------------------------------------------------------| 
D|----------------------------------------------------------| 
A|-2-3-2-0--------------------------------------------------| 
E|---------3-2-0--------------------------------------------| 


Riff 4: 


E|----------------------------------------------------------| 
B|----------------------------------------------------------| 
G|----------------------------------------------------------| 
D|-----4-5-2------------------------------------------------| 
A|-2-5------------------------------------------------------| 
E|----------------------------------------------------------| 


Riff 5: 


E|-------------0-0-0----------------------------------------| 
B|-------------0-0-0----------------------------------------| 
G|-5-4-2-------0-0-0----------------------------------------| 
D|-------5-4-0-2-2-2----------------------------------------| 
A|-------------2-2-2----------------------------------------| 
E|-------------0-0-0----------------------------------------|

Compartilhe esta música: novo

QR Code
Copiar