Que Grande Desafio Eu Tenho

Salzband

Tom: Dm
Intro: Dm Am 

     Dm 
E|-----10---------12----10----------| 
B|---------10--------13-----10------| 
G|------------------------------10--| 2X 
D|----------------------------------| 
A|----------------------------------| 
E|-10----------10-------------------| 


     Am 
E|----5-------7---5-------| 
B|-------5------8----5----| 
G|----------------------5-| 2X 
D|------------------------| 
A|------------------------| 
E|-5--------5-------------|
Dm Am Oh oh que grande desafio eu tenho Dm Am Que é de não confiar em mim Dm Am E deixar de me apoiar só em mim mesmo Dm Am Que a minha ansiedade ceda espaço Dm Am Pra reconhecer que a força que eu procuro G G/B Eu encontro D5 A5 Em Você, só em Você
      D5 
E|----------------------------------------| 
B|--15--15--15-15-13-15--15--15---17-17-17| 
G|----------------------------------------| 
D|----------------------------------------| 
A|----------------------------------------| 
E|----------------------------------------| 


      A5 
E|----------------------------------------| 
B|----------------------------------------| 
G|--14--14--14-14-12-14--14--14--16-16-16-| 
D|----------------------------------------| 
A|----------------------------------------| 
E|----------------------------------------| 
Dm Am Oh oh que grande desafio eu tenho Dm Am Que é de enxergar com outros olhos Dm Am O que me cerca e o que me espera logo adiante G G/B E deixar de duvidar Instrumental: D5 A5 D5 A5
Riffs: 

E|-------------------------------------------------------| 
B|-------------------------------------------------------| 
G|-------------------------------------------------------|  
D|-------------------------------------------------------| 
A|-5--5-3-5--5-3-5--5-3-5--5-3-5--5-3-5--5-3-5--5-3-5/7--| 
E|-------------------------------------------------------| 


E|-20-17------------------------------------------------------------------| 
B|-------20-17-------20-17------------------------------------------------| 
G|-------------19-17-------19-17-------19-17------------------------------| 
D|-------------------------------19-17-------19-17-------19-17------------| 
A|-------------------------------------------------19-17-------19-17------| 
E|-------------------------------------------------------------------20-17|
F5 G5 A5 Que graça tem morar nas minhas dúvidas brincando de teatro nas minhas súplicas F5 Tentando Te dizer o que eu preciso ser quando na verdade G5 A5 O que eu preciso é crer mais fundo em Você acreditando só no que eu Te ouvi dizer Que é só você quem faz tudo andar bem ( F5 G5 A5 )

Compartilhe esta música: novo

QR Code
Copiar