Streetcorner symphony

Rob Thomas

Tom: G#
intro:  
 
e|------------------|------------------|------------------| 
B|----4/2--2--------|----4/2--2--------|----4/2--2--------| 
G|----5/3--3---6----|----5/3--3---6----|----5/3--3---6-6--| 
D|-------------6----|-------------6----|-------------6-6--| 
A|------------------|------------------|------------------| 
E|------------------|------------------|------------------| 
 
e|------------------|------------------| 
B|----4/2--2--------|----4/2--2--------| 
G|----4/3--3---6----|----4/3--3---6--6-| 
D|-------------6----|-------------6--8-| 
A|------------------|------------------| 
D|------------------|------------------| 
G# It's morning Cm I wake up F# C# The taste of summer sweetness on my mind G# It's a clear day Cm In this city F# Let's go dance under the street lights C# All the people in this world Bbm Let's come together More than ever C# I can feel it Can you feel it
G# Come on over Cm Down to the corner F# C# My sisters and my brothers of every different color G# Cm Can't you feel that sunshine telling you to hold tight F# Things will be alright C# Try to find a better life G# Come on over Cm Down to the corner F# C# My sisters and my brothers there for one another want you G# Come on over Cm F# C# Man I know you wanna let yourself go
G# Some people Cm It's a pity F# They go all their lives and never know C# How to love or to let love go G# But it's alright now Cm We'll make it through this somehow F# And we'll paint the perfect picture C# Bbm All the colors of this world will run together more than ever C# I can feel it Can you feel it back to Chorus C# G# Bbm We may never find our reason to shine C# G# Bbm But here and now this is our time C# G# Bbm And I may never find the meaning of life C# G# Bbm But for this moment I am fine C# So back to Chorus

Compartilhe esta música: novo

QR Code
Copiar