Que Hay Detrás (Acústico)

RBD

Tom: F#m
Intro ( F#m,B9,F#m,B9)X2 
OBS: depois de cada B9 você pode deixa só a pestana que deixa mais parecida com a música. 
  
F#m           D  
puedo ver el matiz  
A                 E 
y le reflejo de mi depresion  
F#m           D  
puedo ver el perfil  
A             E  
el fantasma que hay en mi interior 
 
e------4-4------2-2------------- 
b-----5---5----4---4------------ 
d----6-----6--4-----4----------- 
g------------------------------- 
a------------------------------- 
e------------------------------- 
 
e------4-4-------1-------------- 
b-----5---5----1--1------------- 
d----6-----6--2----2------------ 
g------------------------------- 
a------------------------------- 
e------------------------------- 
 
no último Verso antes do Refrão: 
 
e------4-4-------1-------------- 
b-----5---5----1--1------------- 
d----6-----6--2----2------------ 
g------------3------3----------- 
a------------------------------- 
e------------------------------- 
C#m B y no he dejado de fumar C#m F y no puedo dormir C#m B en medio de la soledad C#m F sigo pensando en ti C#m B no me atrevo a comenzar C#m F por olvidarte al fin , C#m B porque me asusta descifrar C#m F que habra detras de ti F#m D A E que hay de tras de una lagrima F#m D A E que hay de tras de la fragilidad F#m D A E que hay de tras del ultimo adios F#m D A E que hay de tras cuando se acaba el amor que hay de tras... F#m D puedo ver desde aqui A E mis recuerdos persiguiendote.. puedo ver el perfil de mi sombra sobre la pared que no ha dejado de fumar y no puedo dormir y en medio de la soledad siguo pensando en ti y no atrvo a comenzar por olvidarte al fin , porque me asusta descifrar que habra detras de ti Live in HollyWood é o Melhor cd do RBD. Valeu Pessoal.

Compartilhe esta música: novo

QR Code
Copiar