Caetano Veloso

Rafael Castro

Tom: G
  ( INTRO sobre G ) 
E|--------------------------------| 
B|--------------------------------| 
G|--------------------------------| 
D|-----2-3-3------2--2-3-3-2------| 
A|--------------------------------| 
E|--3----------3------------------|    (x3) 


E|--------------------------| 
B|--------------------------| 
G|--------------------------| 
D|-----2-3-3----------------| 
A|--------------------------| 
E|--3---------3-------------| 


  ( TOQUE NO ACORDE DE C - 1ª Parte ) 
E|--------------------------| 
B|--------------------------| 
G|--------------------------| 
D|-----5-7-7-----5-5-7-7-5--| 
A|--3---------3-------------| 
E|--------------------------| 


  ( TOQUE NO ACORDE DE F - 1ª Parte ) 
E|------------------------------------| 
B|------------------------------------| 
G|------------------------------------| 
D|-----10-12-12-----10-10-12-12-10----| 
A|--8------------8--------------------| 
E|------------------------------------| 
C Não vá ao show de Caetano C F Venha ao nosso show F G C B A# A7 Todo mundo que gosta de Caetano é amigo nosso F G C E a gente te convidou
  ( TOQUE NO ACORDE DE C - 2ª Parte ) 
E|------------------------------| 
B|------------------------------| 
G|-------5----------------------| 
D|-----5---5/9~-----5-7-2/5~----| 
A|--3-------------3-------------| 
E|------------------------------| 


  ( TOQUE NO ACORDE DE F - 2ª Parte ) 
E|------------------------------| 
B|------------------------------| 
G|------------------------------| 
D|-----10--12--7/10~------------| 
A|--8---------------------------| 
E|------------------------------| 
C7M O Caetano tá aí faz tempo C7M F Cheio de história pra contar F G A gente tá chegando agora C B A# A7 (com o que?) F G C Com um monte de conta pra pagar F G G#º Dm O Caetano Veloso é o Caetano Veloso, e eu Dm C#5 Eu sou só eu C G Eu sou só eu (Intro) C Não vá ao show de Caetano C F Venha ao nosso show F G C B A# A7 Todo mundo que gosta de Caetano é amigo nosso F G C E a gente te convidou Solo: C (x3) F F G C B A# A7 F G C
( Solo ) 

             C             C 
E|--------------------------------| 
B|----------------8--8-8-10-------| 
G|--9--9-9-7-9~-------------9~----| 
D|--------------------------------| 
A|--------------------------------| 
E|--------------------------------| 


             C               F 
E|--------------------------------| 
B|----------------8--8/10---------| 
G|--9--9-9-7-9~-------------------| 
D|----------------------~---------| 
A|--------------------------------| 
E|--------------------------------| 


              F                  G 
E|---------------------------------------| 
B|--10-10--10-10-10--10/12-12--12-12-12--| 
G|---------------------------------------| 
D|---------------------------------------| 
A|---------------------------------------| 
E|---------------------------------------| 


           C    B A#  A7     F       G        C 
E|---------------------------------------| 
B|--12-13--12-11-10----------------------| 
G|-------------------10--10-10-9-7--9----| 
D|------------------------------------10~| 
A|---------------------------------------| 
E|---------------------------------------| 
C7M O Caetano tá aí faz tempo C7M F Cheio de história pra contar F G A gente tá chegando agora C B A# A7 (com o que?) F G C Com um monte de conta pra pagar F G G#º Dm O Caetano Veloso é o Caetano Veloso, e eu Dm C#5 Eu sou só eu C G Eu sou só eu ( INTRO )

Compartilhe esta música: novo

QR Code
Copiar