Sparkle Kimi No Nawa

Radwimps

Tom: G
Intro:  
G C D 2x 

verse 1 
G                C  D                     Em        D 
 Mada kono sekai wa  boku wo kainarashitetai mitai da 
G                    C  D                      G 
 Nozomi doori ii darou  utsukushiku mogaku yo 
G                 C  D                Em           D 
 Tagai no sunadokei  nagame nagara kisu wo shiyou yo 
G                C             D 
 'sayonara' kara ichiban tooi  basho de machi awaseyou 

Solo 
G C D 
E|--3h5-3-5-3---------3-5-5p7-7p5-5p3------| 
B|------------3---3h5----------------------| 
G|--------------5--------------------------| 
D|-----------------------------------------| 
A|-----------------------------------------| 
E|-----------------------------------------| 

G C D 

E|--3h5-3-5-3---------3-5-3-------3--------| 
B|------------3---3h5-------3---3----------| 
G|--------------5-------------5------------| 
D|-----------------------------------------| 
A|-----------------------------------------| 
E|-----------------------------------------| 

E|-----10----| 
B|-----10----| 
G|------9----| 
D|-----10----| 
A|-----------| 
E|-----------|
verse 2 G C D Em D Tsui ni toki wa kita kinou made wa joshou no joshou de G C D G tobashiyomi de ii kara koko kara ga bokuda yo G C D Em D keiken to chishiki to kabi no haekakatta yuuki wo motte G C D ima da katsutenai supiido de kimi no moto e daibu wo Pre-Chorus Short Solo D
E|-----------------| 
B|--------------3--| 
G|--0-0---0-2-0----| 
D|------0----------| 
A|-----------------| 
E|-----------------| 
D Em C D Madoromi no naka de namanurui koora ni D Em C Am koko de nai dokoka wo yumemita yo Em C G D kyoushitsu no mado no soto ni Em C G D F D densha ni yurare hakobareru asa ni
Bridge G C D D7 Em D Unmei da toka mirai tokatte kotoba ga dore dake te wo C G D Am7 Em D nobasou to todokanai basho de bokura koi wo suru G C D D7 Em D tokei no hari mo futari wo yokomeni minagara susumu C Bm7 C sonna sekai wo futari de isshou iya, nan-shou demo D G Ikinuite ikou verse 3 G C D Em D Hajime blablaba Haruka kanata eto i yatte G C D Sen nen blablabla Ich nichi daishi yo Outro G C D

Compartilhe esta música: novo

QR Code
Copiar