senpre que e sai

Planta e Raiz

Tom: E
Intro: E F#m Am 
 
Solo by Carlos.... 
 
e|--------12-12-11-11-9-----------12-12-11-9---------------------12----------------/ 
A|----------------------12-------------------12--12/14-12--12-14----12--9-12--9-14-/ 
D|--9-9--------------------9---9---------------------------------------------------/ 
G|---------------------------------------------------------------------------------/ 
B|---------------------------------------------------------------------------------/ 
E|---------------------------------------------------------------------------------/ 
 
e|-12-14-12-----------------------------| 
A|----------14--12p14-12----------------| 
D|--------------------------------------| 
G|--------------------------------------| 
B|--------------------------------------| 
E|--------------------------------------|
E Tempo vem, para ensinar O que o meu pai, não me ensinou F#m Am Leva essa mágoa embora... E Se vc tem um grande amor E esse alguem não lhe perdoou F#m Am De tempo pra ela agora... E Mas não deixe ela partir, não deixe ela escapar F#m Am Deixe o tempo reagir, deixe o tempo atuar E F#m Ela não vai resistir, ela vai se entregar Am F#m G#m A B E E se não se decidir, só vai ter tempo pra chorar E Abra o coração pra esse amor | F#m | Perdão faz bem pra vida inteira | 2x Am | Pra vida inteira... |

Compartilhe esta música: novo

QR Code
Copiar