Lembranças Perdidas

OutHead

Tom: A
Intro: 
E|---------------------| 
B|---------------------| 
G|--------9--77777-99--| 4x (ABAFADO) 
D|--77777-9--77777-99--| 
A|--77777-7--55555-77--| 
E|--55555--------------| 
 
E|---------------------| 
B|---------------------| 
G|--------9--77777-99--| 4x 
D|--77777-9--77777-99--| 
A|--77777-7--55555-77--| 
E|--55555--------------|
(A, E, D, E) Somente hoje descobri Tudo que vivi aqui Esperando você voltar Procurando em algum lugar (A, E, D, E) Passam dias passam horas Meu relógio corre assim Passo noites sem dormir F# Questionando, conseguir (A, E, D, E) (aumenta o tempo entre as notas) Algum tempo atras, disse que me viu aqui Que não foi legal, que nada sentiu por mim Cada dia, cada hora, as lembranças eu perdi Esqueci de tudo, só não esqueci de ti
E|---------------------| 
B|---------------------| 
G|--------9--77777-99--| 4x 
D|--77777-9--77777-99--| 
A|--77777-7--55555-77--| 
E|--55555--------------| 
 
(A, E, D, E) 
Somente hoje descobri 
Tudo que vivi aqui 
Esperando você voltar 
Procurando em algum lugar 
 
(A, E, D, E) 
Passam dias passam horas 
Meu relógio corre assim 
Passo noites sem dormir 
                     F# 
Questionando, conseguir 
 
(A, E, D, E) (aumenta o tempo entre as notas) 
Algum tempo atras, disse que me viu aqui 
Que não foi legal, que nada sentiu por mim 
Cada dia, cada hora, as lembranças eu perdi 
Esqueci de tudo, só não esqueci de ti 
 
(A, E, D, E) (aumenta o tempo entre as notas) 
Algum tempo atras, disse que me viu aqui 
Que não foi legal, que nada sentiu por mim 
Cada dia, cada hora, as lembranças eu perdi 
Esqueci de tudo, só não esqueci de ti 
 
E|---------------------|      
B|---------------------| 
G|--------9--77777-99--| 3x 
D|--77777-9--77777-99--| 
A|--77777-7--55555-77--| 
E|--55555--------------| 
 
E|-----------------------|      
B|-----------------------| 
G|--------9--77777-9-7---| 1x 
D|--77777-9--77777-9-7-7-| 
A|--77777-7--55555-7-5-7-| 
E|--55555--------------5-|

Compartilhe esta música: novo

QR Code
Copiar