Razões e emoções

Nx Zero

Tom: Cm
INTRO: Eb5 Bb5 C5 Bb5 

Riff 1 

B|-6-6-6-6-6-6-6-6--| 
G|--8-8-8-8-8-8-8-8-| 
Db5 

Riff 2 
B|-6-6-6-6-9-9-8-8-6-6-6-6-9-9-8-8-6-6-6-6-9-9-8-8-6-6-6-6-6-6-6-6-| 
G|--8-8-8-8-8-8-8-8-8-8-8-8-8-8-8-8-8-8-8-8-8-8-8-8-8-8-8-8-8-8-8-8| 

solo do gee junto com a base do fi  

G!-7-7-7/8-8-8-8--7-7-7--8-8-8-8--12-12--8-8-8-8--10101010-8--7-7-7-- 
D!-x-x-x-x-x-x-x--x-x-x--x-x-x-x--x--x---x-x-x-x--x-x-x-x--x--x-x-x-- 
A!-5-5-5/6-6-6-6--5-5-5--6-6-6-6--10-10--6-6-6-6--8-8-8-8--6--5-5-5--
Eb Bb/D Dizer o que eu posso dizer Cm Se estou cantando agora pra você Bb Ouvir com outra pessoa Eb Bb/D É que as vezes acho que não sou o melhor pra você Cm Bb Bb9 Mas as vezes acho que poderíamos ser o melhor pra Fm Gm Ab9 Nós dois só quero que saiba Deixa soar
G!--------------------------------------3--------------- 
D!-3---3---3---3---3---3---3---3--5-----1--------------- 
A!-3---3---3---3---3---3---3---3--5-----3--------------- 
E!-1-0-1-0-1-0-1-0-1-0-1-0-1-0-1--3-----4---------------
Cm Ab Entre razões e emoções a saída Eb Bb É fazer valer a pena Cm Ab Se não agora depois não importa Eb Bb Por você posso esperar. INTRO: Eb Bb/D Cm Bb - com o riff 2 junto Eb Bb/D Sentir o que eu posso sentir Cm Se em um segundo tudo acabar Bb Não vou ter como fugir Eb Bb/D É que as vezes acho que não sou o melhor pra você Cm Bb Bb9 Mas as vezes acho que poderíamos ser o melhor pra Fm nós dois Gm Ab9 Só quero que saiba
refrão com o dedilhado 
B!-------4------------4----------------------------------- 
G!-----5---5-----------------------8------------7-8/5----- 
D!---5-------5------6---6------8-----8--------8----------- 
A!-3--------------6-------6--6---6-----6----8------------- 
E!--------------4-------------------------6--------------- 
                                                         
Entre razões e emoções a saída  
É fazer valer a pena  
Se não agora depois não importa  
Por você posso esperar.  

G!--8-7--8-7---8-7---8-7----------------------------- 
D!-----8----7-----7-----7---------------------------- 
A!-6---------6--------------------------------------- 
E!-----------------6--------------------------------- 

Solo: 

G|-8-8-8-8-12-12-12-12-13-13-13-13-17-17-17-17-15-15-15-15-- 
D|---------------------------------------------------------- 
A|-6-6-6-6-10-10-10-10-11-11-11-11-15-15-15-15-13-13-13-13-- 

G|-13-13-13-13-12-12-12-12-7-7-7-7----- 
D|------------------------------------- 
A|-11-11-11-11-10-10-10-10-5-5-5-5----- 

G|-3/5-5-5-5-3-3-----------------10/12-12-12-12-10-10-10------------ 
D|---------------6-6-6-6-6-6-6-6------------------------8-8-8-8-8-8- 
A|-1/3-3-3-3-1-1------------------8/10-10-10-10-8--8--8------------- 
E|---------------4-4-4-4-4-4-4-4------------------------6-6-6-6-6-6-
Refrão 2x - na segunda vez entra o backing vocal (isso vai passar....... tudo vai melhorar!) Cm Ab Entre razões e emoções a saída Eb Bb É fazer valer a pena Cm Ab Se não agora depois não importa Eb Bb Por você posso esperar. Ab posso esperar Ab9 posso esperar Ab9 posso esperar Ab9 posso esperar Ab9 G!-3- D!-1- A!-3- E!-4-

Compartilhe esta música: novo

QR Code
Copiar