Gole De Sorte

Nx Zero

Tom: G#
E|----------------------------------------------------------------------| 
B|----------------------------------------------------------------------| 
G|-8-8-8-6-8-8-8-8-11-11-11-11-11-11-11-4-4-4-4-4-4-4-4-4-4-4-4-4-4-4-4-| 
D|-6-6-6-4-6-6-6-6--9--9--9--9--9--9--9-2-2-2-2-2-2-2-2-2-2-2-2-2-2-2-2-| 
A|----------------------------------------------------------------------| 
E|----------------------------------------------------------------------| 


E|----------------------------------------------------------------------| 
B|----------------------------------------------------------------------| 
G|-8-8-8-6-8-8-8-8-11-13-13-13-13-13-13-4-4-4-4-4-4-4-4-4-4-4-4-4-4-4-4-| 
D|-6-6-6-4-6-6-6-6-11-11-11-11-11-11-11-2-2-2-2-2-2-2-2-2-2-2-2-2-2-2-2-| 
A|----------------------------------------------------------------------| 
E|----------------------------------------------------------------------|
GUITARRA 2: G#5 B5 E5 2x VERSO:
GUITARRA 1:  
                     P.M.     ....    .... 

E|------------------------------------------| 
B|------------------------------------------| 
G|------------------------------------------| 
D|-6------------4h6-6...-4h6-6...-4h6-6...--| 
A|-6----------------------------------------| 
E|-4----------------------------------------| 


GUITARRA 2:  

E|--------------------| 
B|-4-7-4----------4~~-| 
G|-------4/6~---------| 
D|--------------------| 
A|--------------------| 
E|--------------------|
Vem da sua boca a saliva Me deu um Gole de Sorte Estou dentro de tudo que nos envolve Acima da vida e da morte PRÉ-REFRÃO:
GUITARRA 1:  

E|-------------------------| 
B|---4-7-4-----------------| 
G|---------4-6-4-6-6b8r-4~-|  4x 
D|-6-----------------------| 
A|-------------------------| 
E|-------------------------| 


GUITARRA 2:  

E|----11-14-11------------------------| 
B|-------------12-14-12-14-14b16r-12~-| 
G|-13---------------------------------|  4x 
G|------------------------------------| 
A|------------------------------------| 
E|------------------------------------| 
Sinto que somos donos do nosso amanhã Se nossa frequência passar a barreira do som desse quarto
G#5 B5 Dentro de você é onde quero estar E5 Onde quero estar, me deixa entrar G#5 B5 Dentro de você é onde quero estar E5 Onde quero estar, me deixa entrar G#5 B5 E5 Então me faz sentir em casa G#5 B5 E5 Me faz sentir em casa
VERSO:
GUITARRA 1:  
                     P.M.     ....    .... 

E|------------------------------------------| 
B|------------------------------------------| 
G|------------------------------------------| 
D|-6------------4h6-6...-4h6-6...-4h6-6...--| 
A|-6----------------------------------------| 
E|-4----------------------------------------| 
Vem da sua boca as palavras Desperta um lado novo em mim Estou dentro de tudo que nos envolve Acima da vida e da morte PRÉ-REFRÃO:
GUITARRA 1:  

E|-------------------------| 
B|---4-7-4-----------------| 
G|---------4-6-4-6-6b8r-4~-|  4x 
D|-6-----------------------| 
A|-------------------------| 
E|-------------------------| 


GUITARRA 2:  

E|----11-14-11------------------------| 
B|-------------12-14-12-14-14b16r-12~-| 
G|-13---------------------------------|  4x 
G|------------------------------------| 
A|------------------------------------| 
E|------------------------------------| 
Sinto que somos donos do nosso amanhã Se nossa frequência passar a barreira do som desse quarto
G#5 B5 Dentro de você é onde quero estar E5 Onde quero estar, me deixa entrar G#5 B5 Dentro de você é onde quero estar E5 Onde quero estar, me deixa entrar G#5 B5 E5 Então me faz sentir em casa G#5 B5 E5 Me faz sentir em casa
Intro:  
GUITARRA 1: 2x 


E|----------------------------------------------------------------------| 
B|----------------------------------------------------------------------| 
G|-8-8-8-6-8-8-8-8-11-11-11-11-11-11-11-4-4-4-4-4-4-4-4-4-4-4-4-4-4-4-4-| 
D|-6-6-6-4-6-6-6-6--9--9--9--9--9--9--9-2-2-2-2-2-2-2-2-2-2-2-2-2-2-2-2-| 
A|----------------------------------------------------------------------| 
E|----------------------------------------------------------------------| 


E|----------------------------------------------------------------------| 
B|----------------------------------------------------------------------| 
G|-8-8-8-6-8-8-8-8-11-13-13-13-13-13-13-4-4-4-4-4-4-4-4-4-4-4-4-4-4-4-4-| 
D|-6-6-6-4-6-6-6-6-11-11-11-11-11-11-11-2-2-2-2-2-2-2-2-2-2-2-2-2-2-2-2-| 
A|----------------------------------------------------------------------| 
E|----------------------------------------------------------------------| 
GUITARRA 2: G#5 B5 E5 2x
G#5 B5 Dentro de você é onde quero estar E5 Onde quero estar, me deixa entrar G#5 B5 Dentro de você é onde quero estar E5 Onde quero estar, me deixa entrar G#5 B5 E5 Então me faz sentir em casa G#5 B5 E5 Me faz sentir em casa
FINAL: 


E|----------------------------------------------------------------------| 
B|----------------------------------------------------------------------| 
G|-8-8-8-6-8-8-8-8-11-11-11-11-11-11-11-4-4-4-4-4-4-4-4-4-4-4-4-4-4-4-4-| 
D|-6-6-6-4-6-6-6-6--9--9--9--9--9--9--9-2-2-2-2-2-2-2-2-2-2-2-2-2-2-2-2-| 
A|----------------------------------------------------------------------| 
E|----------------------------------------------------------------------| 


E|----------------------------------------| 
B|----------------------------------------| 
G|-8-8-8-6-8-8-8-8-11-13-13-13-13-13-13-4-| 
D|-6-6-6-4-6-6-6-6-11-11-11-11-11-11-11-2-| 
A|----------------------------------------| 
E|----------------------------------------|

Compartilhe esta música: novo

QR Code
Copiar