Além de Mim

Nx Zero

Tom: E
INTRO: 
 
e|0-0-0-0-0-0-0-0-0-0-0-0-0-0-0-0-0-0-0-0-0--0--0--0--0--0-0-0-0-0-0-0-0-0-0-0-0| 
B|5-5-5-5-5-9-9-9-9-9-7-7-7-7-7-0-7-7-7-7-7-10-10-10-10-10-9-9-9-9-9-0-9-9-9-9-9| 
G|------------------------------------------------------------------------------|  
D|------------------------------------------------------------------------------|  
A|------------------------------------------------------------------------------| 
E|------------------------------------------------------------------------------| 
 
REPETE INTRO COM GUITARRA BASE 
e|-0-0-0-0-0-0----------| 
B|-0-0-0-0-0-0----------| 
G|-1-1-4-4-2-2----------| TOQUE TODAS AS CORDAS QUE FICA MUITO PARECIDO 
D|-2-2-4-4-2-2----------|  
A|-2-2-2-2-0-0----------| 
E|-0-0-0-0-0-0----------|
E (0-2-2-1-0-0) Não olhe para mim fingindo não saber B (0-2-4-4-0-0) Quem realmente sou A (0-0-2-2-0-0) Se nada está tão bem só estou perdendo tempo E (0-2-2-1-0-0) Só me responda agora : B (0-2-4-4-0-0) : : Eu te fiz feliz (eu te fiz feliz) : : C#m (0-4-6-6-0-0) : : Fiz feliz (eu te fiz feliz) A (0-0-2-2-0-0) Todo esse tempo que esteve aqui : B (0-2-4-4-0-0) : : Eu te fiz feliz (eu te fiz feliz) : : C#m (0-4-6-6-0-0) : : Fiz feliz (eu te fiz feliz) A (0-0-2-2-0-0) Responda SOLO DE INTRO (:5-0:) E (0-2-2-1-0-0) B (0-2-4-4-0-0) C#m (0-4-6-6-0-0) E eu não deveria me explicar nem voltar atrás A (0-0-2-2-0-0) Pra te convencer que foi só no início REPETE SOLO INTRO E B A Eu nunca mudei, eu só não estou igual ao que conhece Não tente me entender E B A Tente ver além do que passou E Por favor responda : B (0-2-4-4-0-0) : : Eu te fiz feliz (eu te fiz feliz) : : C#m (0-4-6-6-0-0) : : Fiz feliz (eu te fiz feliz) A Quando ninguém estava aqui : B (0-2-4-4-0-0) : : Eu te fiz feliz (eu te fiz feliz) : : C#m (0-4-6-6-0-0) : : Fiz feliz (eu te fiz feliz) A Responda SOLO DE INTRO (:5-0:) E B C#m Tantas vezes você precisou e eu não pude ver A Nada além de mim E B C#m E eu não deveria me explicar nem voltar atrás A Pra te convencer que foi só no início SOLO: {E B A }4x SOLO DE INTRO (SÓ :5-0:) Tantas vezes você precisou E eu não pude ver : B (0-2-4-4-0-0) : : Eu te fiz feliz (eu te fiz feliz) : : C#m (0-4-6-6-0-0) : : Fiz feliz (eu te fiz feliz) A Todo esse tempo que esteve aqui : B (0-2-4-4-0-0) : : Eu te fiz feliz (eu te fiz feliz) : : C#m (0-4-6-6-0-0) : : Fiz feliz (eu te fiz feliz) A Se lembra? SOLO DE INTRO (:5-0:) E B C#m Tantas vezes você precisou e eu não pude ver A Nada além de mim E B C#m E eu não deveria me explicar nem voltar atrás A Pra te convencer que foi só no início

Compartilhe esta música: novo

QR Code
Copiar