En algun lugar

Moenia

Tom: Em
la introduccion es con G Em G por tres veces y esto 
lo puede hacer otra guitarra o el bajo. 
G------------------------------------------ 
D------------------------------------------ 
A---10-9-7/(2)--3---3---3-3-3-3-3-3-3-3---- 
E------------------------------------------ 
 
G---------------------------------------- 
D---------------------------------------- 
A------------5--5-5---7--7-7---3--3-3---- 
E---3--3-3------------------------------- 
 
G---------------------------------------- 
D---------------------------------------- 
A------------5--5-5---7--7-7---3--3-3---- 
E---3--3-3------------------------------- 
Em G D Em G D Em En algun lugar de un gran pais G D Em G D Em olvidaron construir G D Em G D Em un lugar donde no queme el sol G D Em G D Em y al nacer no haya que morir Bm Y en la sombra C G D Em mueren genios sin saber Bm de su magia C concedida sin pedirlo G mucho tiempo antes de nacer G D Am C se repite dos veces G D Am No hay camino que, llegue hasta aqui C G y luego pretenda salir D Am con el fuego de el atardecer C Em G D Em arde la hierba Em G D Em G D Em En algun lugar de un gran pais G D Em G D Em olvidaron construir G D Em G D Em un lugar donde no queme el sol G D Em G D Em y al nacer no haya que morir Bm Un silbido, C G D Em cruza el pueblo y se ve, Bm a un jinete C que se marcha con el viento G mientras grita que no va a volver D Am Y la tierra aqui es de otro color C G el polvo no te deja ver D Am los hombres ya no saben si lo son C G pero lo quieren creer D Am las madres que ya no saben llorar C G ven a sus hijos partir D Am la tristeza aqui no tiene lugar C G D Am C Em cuando lo triste es vivir.

Compartilhe esta música: novo

QR Code
Copiar