No Altar Do Senhor

Melissa

Tom: C#m
Intro: C#m  B  A  B  C#m  B  A  B 

(Solo) 

E|-----------------------------------------| 
B|----7.9.9.7-------12-----10.8.6----------| 
G|--9----------9.11----------------8.6-----| 
D|-----------------------------------------| 
A|-----------------------------------------| 
E|-----------------------------------------| 


E|----------------------------------9.11.12.12.11-------------| 
B|----7.9.9.7------12.9.12.14.12.9----------------12.9.14.12--| 
G|-9----------9.11--------------------------------------------| 
D|------------------------------------------------------------| 
A|------------------------------------------------------------| 
E|------------------------------------------------------------| 


E|--9-11-12-12-11--------------------------| 
B|-----------------12-9-14-12-9-7----------| 
G|---------------------------------9V------| 
D|-----------------------------------------| 
A|-----------------------------------------| 
E|-----------------------------------------|
Primeira Parte E B A C#m B Nesta noite eu vejo, O céu se abrin...do E B A Derramando bençãos de amor E B A C#m B Somos conduzidos, Ao mesmo cami...nho E B A B Diante do altar do sen...hor...
C#m B A B Sim... vou conti-go estar C#m B A B Onde as mãos do senhor, Nos levar...... C#m B A B C#m B A B E Vo...cê e eu somos um, Por amor Deus uniu e nada irá, Sepa...rar...
Parte 2: E B A C#m B Nesta noite eu vejo, O céu se abrin....do E B A B Derramando bençãos de amor E B A C#m B Somos conduzidos, Ao mesmo camin....ho E B A B Diante do altar do sen...hor...
C#m B A B Sim..., vou contigo estar C#m B A B Onde as mãos do senhor, Nos levar.... C#m B A B C#m B A B E Vo...cê e eu somos um, Por amor Deus uniu e nada irá, Sepa...rar
Ponte: (C#m B A B C#m B A Bsus4)
C#m B A B Sim,... vou contigo estar C#m B A B Onde as mãos do senhor, Nos levar.... C#m B A B C#m B A B E Vo...cê e eu somos um, Por amor Deus uniu e nada irá, Sepa....rar
( C#m B A B C#m B A B ) Final: Aonde quer que fores irei eu Onde quer que pousares ali pousarei eu O teu povo e o meu povo E o teu Deus e o meu Deus Final: (C#m B A B - C#m B A B)

Compartilhe esta música: novo

QR Code
Copiar