Não Pude Mirar Teus Olhos

Mauro Moraes

Tom: A
Intro: 
   A							 Bm7 
e|-2-0h2p0-------------------------------|-2-0h2p0---------------- 
B|---------2-0h2p0---0-2-------2-------2-|---------2-0h2-3-3------ 
G|-----------------2-----2-----2-------2-|------------------------ 
D|-------------------------2---2-------2-|---------------------4-- 
A|---------------------------0---0-0-0---|-------------------2---- 
E|---------------------------------------|------------------------ 

					 E7		 A 
e|-------------|-5-5-4-4-2-2---------------|-4-4-2-2-0-0---------- 
B|-3-3-----3-3-|-7-7-5-5-3-3-----3-----3---|-5-5-3-3-2-2-----2---- 
G|-----2-------|-------------------2-------|-----------------2-2-- 
D|-------4-----|---------------4-----4-----|-----------------2---- 
A|-------------|-------------2-------------|-------------0-0------ 
E|-------------|-------------------------0-|---------------------- 

e|---------------| 
B|-----2-------2-| 
G|-----2-2-----2-| 
D|-----2---2---2-| 
A|-0-0-------0---| 
E|---------------|
C#m7 Cuepucha, negra xirua! F#m Não pude mirar teus olhos. Bm Em direção ao palanque E7 Me fui, ao tranco do baio. D O negro escuro da noite A Se salpicava de estrelas. F#m Me fui tristonho, calado. Bm E7 Choram por mim as chilenas. Bm No potreiro a palavra E7 Me matreireou nesse dia Bm Pra dizer-te frente a frente E7 Que de tiempos te queria. D C#7 O teu sonho também era F#m Ser calhandra do meu pago B7 E sem ficharmos de frente E7 Ficamos os dois calados. D C#7 Pra aliviar as minhas penas F#m Seguiu cruzeiro do sul, B7 Quatro estrelas machazas E7 Nascidas em forma de cruz. D#m7(5-) Dm7 Pra não enlutar a noite C#m F#7 Desta pampa, potra crua, Bm E7 Na imensidão do meu pago Em A7 Plantou-se um clarão de Lua. D D9(6) A noite pronto me abraça C#m F#7 E nem sei por onde anda. Bm E7 Talvez fizeste teu ninho Em A7 Em outro rancho, calhandra. D Dm7 Já venho gasto dos pagos, C#m F#7 Querência não fiz nenhuma, Bm E7 Não pude mirar teus olhos. A A4 Cuepucha, negra xirua! A A4 Cuepucha, negra xirua! A A4 A7M Cuepucha, negra xirua!

Compartilhe esta música: novo

QR Code
Copiar