Escuta, Cavaquinho

Martinho da Vila

Tom: Gm
    Gm7               Cm7       F7                    Bb7M 
E|-----------------------------8----------------------------| 
B|-8-8-------------------------10-11-10-8-------------------| 
G|-----7-8-10-10-8-7-8---------8----------10-8--------------| 
D|-----------------------------10--------------12-10-12-----| 
A|----------------------------------------------------------| 
E|----------------------------------------------------------| 


    Eb7M              Cm7       D7                      Gm7 
E|----------------------------------------------------------| 
B|-8-8------------------------------------------------------| 
G|-----7-8-10-10-8-7-8---------5-7-8-7-7-5-5----------------| 
D|-------------------------------------------8-8-7-7-5-5----| 
A|----------------------------------------------------------| 
E|----------------------------------------------------------| 
Gm7 Cm7 Escuta cavaquinho as minhas preces F7 Bb7M Senão o tempo passa e a gente esquece Eb7M Cm7 Esquece de aprontar a fantasia D7 Gm7 De celebrar a dor e a alegria Gm/B Cm7 Toca pra que um sonho realize F7 Bb7M Ou pelo menos guarde um press release Eb7M Cm7 Pra que no futuro possam ler D7 Gm Gm/F Que somos seres que se amam tanto D7/A D7 Gm7 E que misturam alegria e pranto G7 Cm7 Eu violão, você cavaquinho F7 Bb7M Eu na canção, você no chorinho Eb7M Cm7 Sem acordar, será noite ou será dia D7 Gm7 Felicidade, uma utopia Gm/Bb Cm7 Que a gente curtia e vivia no presente F7 Bb7M Desse país que é todo eternidade Eb7M Cm7 Com esse sol desfilando em carro aberto D7 E um futuro muito incerto D7/F# Gm7 G7 Mas já pleno de saudade Solo: Cm7 F7 Bb7M Eb7M Cm7 D7 Gm7 G7 Cm7 Eu violão, você cavaquinho F7 Bb7M Eu na canção, você no chorinho Eb7M Cm7 Sem acordar, será noite ou será dia D7 Gm7 Felicidade, uma utopia Gm/Bb Cm7 Cm7/G Que a gente curtia e vivia no presente F#º F7 Bb7M Desse país que é todo eternidade Eb7M Cm7 Com esse sol desfilando em carro aberto D7 E um futuro muito incerto D7/F# Gm7 G7 Mas já cheio de saudade Solo 2x: Cm7 F7 Bb7M Eb7M Cm7 D7 Gm7 G7 G7 Cm7 Eu violão, você cavaquinho F7 Bb7M Eu na canção, você no chorinho Eb7M Cm7 Sem acordar, será noite ou será dia D7 Gm7 Felicidade, uma utopia Gm/Bb Cm7 Que a gente curtia e vivia no presente F#º F7 Bb7M Desse país que é todo eternidade Eb7M Cm7 Com esse sol desfilando em carro aberto D7 E um futuro muito incerto D7/F# Gm7 Mas já cheio de saudade Solo: Cm7 F7 Bb7M Eb7M Cm7 D7 Gm7 Solo final:
    Gm7               Cm7       F7                    Bb7M 
E|-----------------------------8----------------------------| 
B|-8-8-------------------------10-11-10-8-------------------| 
G|-----7-8-10-10-8-7-8---------8----------10-8--------------| 
D|-----------------------------10--------------12-10-12-----| 
A|----------------------------------------------------------| 
E|----------------------------------------------------------| 


    Eb7M              Cm7       D7                      Gm7 
E|----------------------------------------------------------| 
B|-8-8------------------------------------------------------| 
G|-----7-8-10-10-8-7-8---------5-7-8-7-7-5-5----------------| 
D|-------------------------------------------8-8-7-7-5-5----| 
A|----------------------------------------------------------| 
E|----------------------------------------------------------| 


                                                Gm7 
E|----------------------------------------------------------| 
B|----------------------------------10-8-7--10-8------------| 
G|----------------5-----7--5--8--7--------------------------| 
D|-4--7--5--8--7-----8--------------------------------------| 
A|----------------------------------------------------------| 
E|----------------------------------------------------------|

Compartilhe esta música: novo

QR Code
Copiar