Ai Ai

Maglore

Tom: Ebm
E|----------------------| 
G|----------------------| 
B|--------6-------------| 
D|--6-6/8---8-7-6-8-----| 
A|------------------8-7-| 
E|----------------------| 


Riff 2: 


E|--------------------------------------8-6-4---| 
G|--7---7-6--6-4------4---------------9-------6-| 
B|------------------------6--6-8-9-10-----------| 
D|---6-----6----6-4-6---6-6--6-6-8--------------| 
A|----------------------------------------------| 
E|----------------------------------------------| 


Riff 3: 


E|-----------------------------8-6-8------------| 
G|--7---7-6--6-4------4--------6-6-6------------| 
B|------------------------6---------------------| 
D|---6-----6----6-4-6---6-6---------------------| 
A|----------------------------------------------| 
E|----------------------------------------------|
Introdução: (Riff1) --> Ebm Ab7 Db7+ (Riff1) --> Ebm Ab7 Db7+ (Riff1) Ebm Ab7 Db7+ Eu já não sei se te quero mais Bbm Ebm Ab7 Db7+ Saudade mata não incomoda é verdade Bbm Ebm Ab7 Db7+ Ai, ai ai,ai eu aceito dançar Bbm Ebm Ab7 Db7+ No compasso da solidão e por hora me basto (Riff 1) Ebm Ab7 Db7+ Ai, ai não vem correndo nunca perca o passo Bbm Ebm Não tenha pressa de viver um verdadeiro amor Ab7 Db7+ Ai ai, meu bem eu sei Bbm Ebm Não é pro tempo ficar só se arrastando Ab7 Db7+ Nem pro seu coração ficar te maltratando Bbm Ebm O meu abraço não deve gerar nenhum temor Ab7 Db7+ Depois não diga que não te avisei (Riff 1) (Riff 2) (Riff 3) Ebm Ab7 Db7+ Eu já não sei se te quero mais Bbm Ebm Ab7 Db7+ Saudade mata não incomoda é verdade Bbm Ebm Ab7 Db7+ Ai, ai ai,ai eu aceito dançar Bbm Ebm Ab7 Db7+ No compasso da solidão e por hora me basto (Riff 1) Ebm Ab7 Db7+ Ai, ai não vem correndo nunca perca o passo Bbm Ebm Não tenha pressa de viver um verdadeiro amor Ab7 Db7+ Ai ai, meu bem eu sei Bbm Ebm Não é pro tempo ficar só se arrastando Ab7 Db7+ Nem pro seu coração ficar te maltratando Bbm Ebm O meu abraço não deve gerar nenhum temor Ab7 Db7+ Bbm Depois não diga que não te avisei Ebm Ab7 Db7+ Ai, ai depois não diga que não te avisei Bbm (te avisei) Ebm Ab7 Db7+ Ai, ai depois não diga que não te avisei Bbm (te avisei) Ebm Ab7 Db7+ Ai, ai depois não diga que não te avisei Bbm (te avisei) Ebm Ab7 Bbm Ai, ai depois não diga que não te avisei

Compartilhe esta música: novo

QR Code
Copiar