Ja Ja

Luxuslärm

Tom: Am
Intro:  
     Am        G                 Am        G 
E------------------------------------------------| 
H--------h2p0-----0------------------h2p0-----0--| 
G------2-----2---0-----------------2-----2---0---| 
D-----2-2-----2-0-----------------2-2-----2-0----| 
A----0---------------------------0---------------| 
E--------------3---------------------------3-----| 

Strophe:   
     Am        G      Em     F 
E-----------------------------------| 
H--------h2p0-----0-----0-----------| 
G------2-----2---0-----0--0----1----| 
D-----2-2-----2-0-----2----2--2-----|(2) 
A----0-----------------------3------| 
E--------------3-----0------1-------| 
Intro Am G Am G Strophe I Am G Em F Da kommt ein bittersüßes 'Hallo, na wie gehts denn?' Am G Em F Er ist ein Profi, immer lächelnd, immer cool Am G Em F Ich sag nur 'Alles super, alles voll auf Kurs' und Am G Em F Ich weiß er hört mir sowieso nicht zu Am G Em F Er ist einer von den Typen, die laut reden Am G Em F Und sich eigentlich auch selbst am liebsten hörn Am G Em F Alles an ihm ist toll und irgendwie einmalig Am G Em F Doch leider kommt es mir nur ganz gewöhnlich vor
Am G Ja Ja Em F Tausend und einmal Am G Ja Ja Em F Das hab ich alles schon gehört Am G Ja Ja Em F Zweitausendzweimal Am G Em F Ja Ja, Ja Ja, Ja Ja
Strophe II Am G Em F Ich könnte ihm jetzt ehrlich sagen, was ich denke Am G Em F Doch ändern, ändern wird es nichts Am G Em F Ja sein Lächeln passt so geil zu seinen Haaren Am G Irgendwie klebt man dran Em F Das ist so widerlich
Am G Ja Ja Em F Tausend und einmal Am G Ja Ja Em F Das hab ich alles schon gehört Am G Ja Ja Em F Zweitausendzweimal Am G Em F Ja Ja, Ja Ja, Ja Ja
Bridge Em Dm Jetzt ist er auf MySpace, hat Freunde wie nie Am Em Doch es könnten noch mehr sein, gleich zeigt er dir, wie Em Dm Denn er weiß alles besser, ist unheimlich schlau Am Em G F Und irgendwie ist er ne ganz arme Sau
Am G Em F Ja Ja Ja Ja Ja Ja Ja Am G Em F Bla Bla Bla Bla Bla Bla Bla Am G Ja Ja Em F Tausend und einmal Am G Ja Ja Em F Das hab ich alles schon gehört Am G Ja Ja Ja Ja Em F Ja Ja Ja Huu Am G Ja Ja Ja Ja Em F Ja Ja Ja Huu
Outro Am G Das hab ich alles schon gehört Em F Das kommt mir irgendwie bekannt vor Am G Das hab ich alles schon gehört Em F Das kommt mir irgendwie bekannt vor Am G Em F Ja Ja, Ja Ja, Ja Ja Jaaaaahaa

Compartilhe esta música: novo

QR Code
Copiar