Duende Musiqueiro

Luiz Marenco

Tom: Am
Introdução e estrofes 1, 2 e 3: 
E |--------------------------0-------------|-----------------0----| 
B |--------------------0--1--------1-------|--3--------1--3-------| 
G |--------------2-------------------------|--------2-------------| 
D |--------2-------------------------------|--3-(3)---------------| 
A |--0-------------------------------------|----------------------| 
E |----------------------------------------|----------------------| 
                                                                 
--------------------------0-------------|--------------3--0----| 
--------------------0--1--------1-------|--3--------1----------| 
--------------2-------------------------|--------2-------------| 
--------2-------------------------------|-----3----------------| 
--0-------------------------------------|--2-------------------| 
----------------------------------------|----------------------| 
                                               
----------------------|-----------------0----| 
-----------1--0-------|--1--------1--3-------| 
--------2--------2----|--2-----2-------------| 
-----2----------------|--0-(0)---------------| 
--0-------------------|----------------------| 
----------------------|----------------------| 
                                          
--------------------0-------------------| 
--------------3--------3--------3-------| 
--------0-----------------0-------------| 
----------------------------------------| 
--3-------------------------------------| 
----------------------------------------| 
                                  
----------------------------------------| 
-----3--3-----3--------1--1-----1-------| 
-----2--2-----2--------1--1-----1-------| 
-----3--3-----3--------2--2-----2-------| 
--2-------------------------------------| 
--------------------0-------------------| 

                                                   No coração do...                     
----------------------------------------|-------|----------------------| 
--------------------0--------------0L---|--0----|-----------1----------| 
--------------2-----------2--------2L---|--2----|--------2-----2-------| 
--------2--------------------------2L---|--2----|-----2-----------2----| 
--0--------------------------------0L---|--0----|--0-------------------| 
----------------------------------------|-------|----------------------| 
                                                                      
----------------------|-----------1-----0L---|--0-------------------| 
--0--------1----------|--------3-------------|-----3-----3----------| 
-----2--------2-------|-----2--------2-------|--------2-------------| 
--------2--------2----|--0-------------------|----------------------| 
----------------------|----------------------|----------------------| 
----------------------|----------------------|----------------------| 
                                                                      
-----------1----------|-----------1----------|----------------------| 
--------0-----0-------|--------0-----0-------|-----------0----------| 
-----0-----------0L---|--0--0-----------0----|--------0-----0-------| 
----------------------|----------------------|-----0-----------0----| 
----------------------|----------------------|----------------------| 
--3-------------------|----------------------|--3-------------------| 

                                          Quando uma porta...                     
----------------------|----------------|----------------------| 
-----------3----------|--3-----1--3----|--0--------0----------| 
--------0-----0-------|--2--2--1-------|--------2-----2-------| 
-----2----------------|--3-----2-------|-----2-----------2----| 
--3-------------------|--2-------------|--0-------------------| 
----------------------|--------0-------|----------------------| 
                                                                 
-----------0----------|--1-----------------3-------------------| 
--1-------------------|--3-----------------5-------------------| 
-----2--------2-------|----------------------------------------| 
--------2-------------|-----------0--------------0-------------| 
----------------------|----------------------------------------| 
----------------------|----------------------------------------| 
                          
--5--------8----------|--7--------7----------|-----------5----------| 
--6--------10---------|--8-----8--------8----|--------6-----6-------| 
----------------------|--7--7--------7-------|-----7----------------| 
-----0--------0-------|--9-------------------|--5-------------------| 
----------------------|----------------------|----------------------| 
----------------------|----------------------|----------------------| 

--------5-------------|-----------3----------|--5--5--4--4----| 
-----3-----3-----3----|-----0--1-----1--0----|--3-----3-------| 
--------------2-------|----------------------|--4-----4-------| 
--3-------------------|--2-------------------|--2-----2-------| 
----------------------|----------------------|----------------| 
----------------------|----------------------|----------------| 

  Ah... 
----------------------|----------------------|----------------------|--0----| 
-----------1--0--1----|--0--------0----------|-----------1----------|--1----| 
--------2-------------|--------0-----0-------|--------2-----2-------|--2----| 
-----2----------------|-----0----------------|-----2----------------|--2----| 
--0-------------------|----------------------|----------------------|-------| 
----------------------|--3--------------3----|--1-------------------|-------| 

----------------------|----------------------|----------------------| 
-----------1----------|-----------1----------|-----------0----------| 
--------2--------2L---|--2-----2--------2----|--------1-----1-------| 
-----2--------2-------|-----2--------2-------|-----0-----------0L---| 
--0-------------------|----------------------|----------------------| 
----------------------|----------------------|--0-------------------| 

-----------------0----|----------------------|----------------------| 
-----1-----0----------|-----------0----------|-----------0----------| 
--------1-----1-------|--------1--------1L---|--1-----1--------1----| 
--0-------------------|-----0--------0-------|-----0--------0-------| 
----------------------|----------------------|----------------------| 
----------------------|--0-------------------|----------------------| 

----------------------|--0----|| 
-----------1----------|--1----|| 
--------0-------------|--0----|| 
-----2--------2L-2----|--2----|| 
--0-------------------|--0----|| 
----------------------|-------||
Am A5(9) No coração do povoado, Am Dm D5(9) Rodeado de um entardecer, G7 Buscava de olhos largos G Alguma imagem do pago, C9 Bm7(5-) E7M(5+) E7 Pueblito do meu querer. A5(9) Am Quando uma porta entreaberta, Dm D4 Dm D5 Por quieta, adormecia, G G9(7) Junto à vidraça quebrada, F6 De alma e boca cerrada, Em Em5+ Em E4(7) E7 Velava um final de dia. Am A5(9) Am G F7M E4 Ah! Por curiosa mirada Am Pealava a alma inteira, E7 E7(13-) E7 Ranchito de cruz pra esquina, E7 Um duende guardava a sina Am7 No fole de uma três hileras. Am Dm Enfeitiçada cordeona chorona E7 Am Escondia um dizer: Am7/G Bm7(5-) 'Tengo enbrujos de frontera E7 Y un alma musiquera Am Poseída de un chamamé'. Am7/G Dm E num toque repicado E7 Am De um passado veio ao presente. Am7/G Bm7(5-) Foi feitiço de uma china, E7 Por certo a guaina mais linda A Bm E7 Que já andou por Corrientes.
A C#m7 Anda aqui aprisionado, Bm E7 Culpado por não querer D A O ranchito desta china C#m7(5-) F#7M(5+) Bm Pra andar nas pulperías, E7 A Bm E7 Nas notas de um chamamé. A C#m7 Me fiz duende musiqueiro, Bm E7 Fronteiro por mais querer. D A No fole está adormecido, C#m7(5-) F#7M(5+) Bm Mas toca junto comigo E7 A Quando arpejo um chamamé.
Interlúdio: Dedilhado: Bm | E7 | C#m7 | F#7 | Bm | E7 | A | C#m7(5-) F#7M(5+) Rasgueado: Bm | E7 | C#m7 | F#7 | Bm | E7 | A | A Repete refrão. Fechamento: Dedilhado: Bm | E7 | C#m7 | F#7 | Bm | E7 | A | A | A (deixe soar)

Compartilhe esta música: novo

QR Code
Copiar