Sigue girando

Los Ratones Paranoicos

Tom: Dm
Intro: Dm G Ab A Dm 
 
Dm             G         Ab A 
Estaba sola en la estación 
Dm             G        Ab A 
tatuada sobre el corazón 
Dm             G          Ab A 
de pronto tuvo  algo de sed 
Dm             G     Ab A 
pidió monedas y se fue 
Dm            G       Ab A 
entró apurada  en un bar 
Dm              G         Ab A 
las dos primeras fueron tres 
Dm               G      Ab A 
le dieron algo de fumar 
Dm            G        Ab A 
y todo comenzó a girar 
 
Dm G Ab A Dm 
 
El mundo gira sin compasión 
la sangre corre sin parar 
no tengo miedo quiero más 
ella se acerca o se va 
escuchemos el rock and roll 
me gusta mucho como es 
mirando un poco alrededor 
ella se acerca otra vez 
 
Ab     A    Dm  G   Ab  A  Dm   G 
sigue girando     sigue girando 
 
Ab      A  Dm   G    G   C       E   Am   C G Am C G X2 
sigue girando       con el rock and roll 
 
Dm      G    Ab   A    Dm G Ab A Dm 
girando    sigue girando 
 
Estaba sola en la estación 
tatuada sobre el corazón 
de pronto tuvo algo de sed 
pidió monedas y se fue 
escuchemos el rock and roll 
me gusta mucho como es 
mi sangre corre sin parar 
me equivoqué otra vez 
 
sigue girando... 
 
   Dm                  Ab 
E-x-----------        E--X------------ 
B-x-----------        B--X------------ 
G-2-----------        G--3------------ 
D-0-----------        D--3------------ 
A-x-----------        A--X------------ 
E-x-----------        E--X------------ 
 
 
     G                   A 
E--X-----------       E---x------------ 
B--X-----------       B---x------------ 
G--X-----------       G---2------------ 
D--X-----------       D---2------------ 
A--2-----------       A---x------------ 
E--3-----------       E---x------------ 

Compartilhe esta música: novo

QR Code
Copiar