Tô Apaixonado Nessa MinaCifra para Ukulele Verificada

Kevinho

Tom: D
Intro: D F# G A7 

 
E|-5-------5--2--0--5-----5--2--0-------|  
B|-----3---------------3-----------3----|  
G|--------------------------------------|  
D|--------------------------------------|  
A|--------------------------------------|  
E|--------------------------------------|  


E|--------------------------------|  
B|-5/7--7/5p3---------------------|  
G|--------------4-----------------|  
D|--------------------------------|  
A|--------------------------------|  
E|--------------------------------| 
D G Tô apaixonado nessa mina Em D E quando ela empina G Em Não dá pra não quere____r D G Tô apaixonado nessa mina Em D E quando ela empina G Em Geral quer se envolve____r D E quando ela chegou no fluxo Geral parou D Cintura fina e o bumbum grande G Em Não teve quem não notou D Cabelo longo ao vento G Em Troca sentimento por sensação D Faz pose pra foto, tirando onda G Em Esqueceu quem feriu o coração D G Em D Ela manda um quadradinho, sensacional G Em Oh, assim cê mata o pai D G Em D Ela manda um quadradinho, sensacional G Em Oh, vai que tá legal D G Tô apaixonado nessa mina Em D E quando ela empina G Em Não dá pra não quere____r D G Tô apaixonado nessa mina Em D E quando ela empina G Em Geral quer se envolve____r D G Tô apaixonado nessa mina Em D E quando ela empina G Em Não dá pra não quere____r D G Tô apaixonado nessa mina Em D E quando ela empina G Em Geral quer se envolve____r Ponte: D F# G A7
 
E|-5-------5--2--0--5-----5--2--0-------|  
B|-----3---------------3-----------3----|  
G|--------------------------------------|  
D|--------------------------------------|  
A|--------------------------------------|  
E|--------------------------------------|  


E|--------------------------------|  
B|-5/7--7/5p3---------------------|  
G|--------------4-----------------|  
D|--------------------------------|  
A|--------------------------------|  
E|--------------------------------| 
D E quando ela chegou no fluxo Geral parou D Cintura fina e o bumbum grande G Em Não teve quem não notou D Cabelo longo ao vento G Em Troca sentimento por sensação D Faz pose pra foto, tirando onda G Em Esqueceu quem feriu o coração D G Em D Ela manda um quadradinho, sensacional G Em Oh, assim cê mata o pai D G Em D Ela manda um quadradinho, sensacional G Em Oh, vai que tá legal D G Tô apaixonado nessa mina Em D E quando ela empina G Em Não dá pra não quere____r D G Tô apaixonado nessa mina Em D E quando ela empina G Em Geral quer se envolve____r D G Tô apaixonado nessa mina Em D E quando ela empina G Em Não dá pra não quere____r D G Tô apaixonado nessa mina Em D E quando ela empina G Em Geral quer se envolve____r Final: D F# G A7
 
E|-5-------5--2--0--5-----5--2--0-------|  
B|-----3---------------3-----------3----|  
G|--------------------------------------|  
D|--------------------------------------|  
A|--------------------------------------|  
E|--------------------------------------|  


E|--------------------------------|  
B|-5/7--7/5p3---------------------|  
G|--------------4-----------------|  
D|--------------------------------|  
A|--------------------------------|  
E|--------------------------------| 

Compartilhe esta música: novo

QR Code
Copiar