Baton Road

Kana-boon

Tom: C#
C#          G#          A#m    G#/C   C#   D#m 
mirai o ima ni oinuite ashiato de egaita chijoue 
F#         G#     G# 
sono me ni yadose hikari to hi 

SOLO 1: 

E|------4-----6-8-9-| 
B|--4-6---6-4-------| 
G|6-----------------| 
D|------------------| 
A|------------------| 
E|------------------| 
RIFF1:
E|--------4---|           |-------------| 
B|6-4-6-4-4-4-|           |-4-4-4-4-4-4-| 
G|6-6-6-6---6-|           |-5-6-5-6-5-6-| 
D|------------|  3X       |-------------| 
A|------------|           |-------------| 
E|------------|           |-------------| 
C# C#7 kasaneta yume no kage mayoigao utsuru mado C# C#7 uzoumuzou tobira no mukou no gunjou C# C#7 tsukameba yume no kage kotae wa kaze no naka D#m7 G# C# kitto mada mienai mono RIFF2:
E|----------------------------------------------------------| 
B|6-6--4-4---9-9-9-9-9-9-9--6-6--4-4---9-9-9-9-9-9-9--11-11-| 
G|X-X--X-X---X-X-X-X-X-X-X--X-X--X-X---X-X-X-X-X-X-X--X--X--| 
D|3-3--1-1---6-6-6-6-6-6-6--3-3--1-1---6-6-6-6-6-6-6--8--8--| 
A|----------------------------------------------------------| 
E|----------------------------------------------------------| 


E|---------------------------------| 
B|7---6--7-6-7-6---9---9---9---9---| 
G|X---X--X-X-X-X---X---X---X---X---| 
D|4---3--4-3-4-3---6---6---6---6---| 
A|---------------------------------| 
E|---------------------------------| 
kawaita ashiato mo tadoreba osanaki hi mabataki mo wasurete F# G# A#m C# mirai o kimi to oinuite mitai no sa kono me de shinshou o F# G# A#m G#/C C# D# baton roodo furikaeru to kimi dake no chijoue F# G# A#m C# ima wa namida no tane datte sakasereba idai na denshouka F# G# sono me ni yadose hikari to hi SOLO2:
E|------4-----------------------| 
B|--4-6---6-4---6p4---4-4---6-6-| 
G|6-----------6-----6-----6-----| 
D|------------------------------| 
A|------------------------------| 
E|------------------------------| 


E|------4----------6---4---9---8-| 
B|--4-6---6-4---/6---6---6---6---| 
G|6------------------------------| 
D|-------------------------------| 
A|-------------------------------| 
E|-------------------------------| 


E|------4----------------------------4--------9-| 
B|--4-6---6-4---6p4---4-4---4-bend4----4--4/6---| 
G|6-----------6-----6-----6---------------------| 
D|----------------------------------------------| 
A|----------------------------------------------| 
E|----------------------------------------------| 


E|------4-----6-8-9-| 
B|--4-6---6-4-------| 
G|6-----------------| 
D|------------------| 
A|------------------| 
E|------------------| 

Compartilhe esta música: novo

QR Code
Copiar