Señor bolero

José Feliciano

Tom: D
Intro: D ? Bm ? F#m ? Em ? A (x2) 
e|-----------12--10-12-10.-12-12-10-10-9-9-7-7-5-5.-7-9-7-5-7-5.-- 
B|-------10--14--------------------------------------------------- 
G|----11-----14--------------------------------------------------- 
D|-12------------------------------------------------------------- 
A|---------------------------------------------------------------- 
E|---------------------------------------------------------------- 
 
e|----7-9-10-7-------7-10-7-9.-| 
B|-10----------8---8-----------| 
G|---------------9-------------| 
D|-----------------------------| 
A|-----------------------------| 
E|-----------------------------|
D Bm F#m Señor bolero te doy las gracias por estar conmigo B Em A F#m ? Bm ? Em ? A tú que has sido mi mejor amigo, señor bolero, las gracias te doy D Bm F#m cómo recuerdo aquellas noches llenas de locura B Em aquellas noches llenas de ternura A D7 que me llevaron hacia la aventura. *CORO* Bm Gm Con tus canciones olvidé mi dolor A Bm por ti aprendí que en el amor Em A D7 a veces se sufre, a veces se llora por una traición. Bm Gm Tus melodías que fueron tan bellas A Bm y el destino que me trajo hacia ellas Em A D por ser buen amigo, señor bolero, las gracias te doy. *Intro* D Bm F#m Señor bolero tú bien sabes lo mucho que he sufrido B Em y que de mi mente todavía yo no he podido A F#m ? Bm ? Em ? A borrar las huellas de ese gran amor D Bm F#m y con tus notas, yo sé que llegaré a su corazón B Em yo sé que escuchará en mi canción A D7 lo que en otros tiempos la supo enloquecer. *CORO* Bm Gm Con tus canciones olvidé mi dolor A Bm por ti aprendí que en el amor Em A D7 a veces se sufre, a veces se llora por una traición. Bm Gm Tus melodías que fueron tan bellas A Bm y el destino que me trajo hacia ellas Em A D por ser buen amigo, señor bolero, las gracias te doy. *Intro* Señor bolero...

Compartilhe esta música: novo

QR Code
Copiar