A Princesa

Jorge e Mateus

Tom: A
Intro: A B E (2x) 


        A   B   C#m   G#m   A   B   A   G#m   F#m   E   B7 
E|----------------------------------|------------------------------------| 
B|--2---2-2/5-4-4-2-0-0-------------|--2---2-2/5-4-4-2-0-0---------------| 
G|----2------------------2-1-2-2/4--|----2-----------------2-1-2-2/4-4/6-| 
D|----------------------------------|------------------------------------| 
A|----------------------------------|------------------------------------| 
E|----------------------------------|------------------------------------| 


E|----------------------------------|------------------------------------|-----7-| 
B|--2---2-2/5-4-4-5-7-7/9-7-5-4-2-0-|--5-5-5-4-4-2--5-4-2-0-2-0----------|-5/7---| 
G|----2-----------------------------|-----------------------------2--1---|-------| 
A|----------------------------------|------------------------------------|-------| 
D|----------------------------------|------------------------------------|-------| 
E|----------------------------------|------------------------------------|-------| 
E B C#m Para mim o teu sorriso é como as estrelas A B E Para mim o seu olhar tem a luz da lua A B C#m G#m Se pudesse eu daria todo universo pra te amar A B A G#m F#m E B7 Ó princesa, por favor não vá E B C#m É tão grande essa paixão que tenho no meu peito A B E Quanto amor guardado no meu coração A B C#m G#m Quantas vezes for preciso gritarei ao mundo que eu te amo A B A G#m F#m E E7 E você vai se orgulhar de mim A B E E7 Vem amor, me abra de uma vez A B E E7 Arranque todos os segredos meus A B C#m G#m Ocupe a solidão de um coração que te pertence A B A G#m F#m E E7 Pra nunca mais me dizer adeus Intro 2: A B C#m G#m A B A G#m F#m E B7 E B C#m Mesmo que você não queira mais saber de mim A B E Vou tentando convencê-la do quanto te amo A B C#m G#m Mesmo que você recuse ouvir a minha voz eu não desisto A B A G#m F#m E Vou gritar te amo demais A B E E7 Vem amor, me abra de uma vez A B E E7 Arranque todos os segredos meus A B C#m G#m Ocupe a solidão de um coração que te pertence A B A G#m F#m E Pra nunca mais me dizer adeus A B A G#m F#m E Pra nunca mais me dizer adeus

Compartilhe esta música: novo

QR Code
Copiar