Esclavo Y Amo

Javier Solis

Tom: Cm
----------------------------------------------------------------------------
----13h15p13-12-13-------11-11h13p11-10-11----------------------------------
-12----------------12-13-------------------10-12-13-13h15p13-12-13----10-12-
-------------------------------------------------------------------13-------
----------------------------------------------------------------------------
----------------------------------------------------------------------------

----------------------------------------------------------------
----------------------12-13-15-13h15p13-12----13-12-13-12-------
-12-12-13-12-10-12-13----------------------13-------------13-12-
----------------------------------------------------------------
----------------------------------------------------------------
----------------------------------------------------------------

-------------11-11-------------11-
----13-13-15-------15-13-13-15----
-12-------------------------------
----------------------------------
----------------------------------
----------------------------------
Cm No se que tienen tus ojos Bb No se que tiene tu boca G# Que domina mis antojos G Y a mi sangre vuelve loca Cm No se como fui a quererte Bb Ni como te fui adorando G# Me siento morir mil veces G Cuando no te estoy mirando Fm De noche cuando me acuesto G Cm A Dios le pido olvidarte Bb Y al amanecer despierto G# G Tan solo para adorarte Fm Que influencia tienen tus labios G Cm Que cuando me besan tiemblo Bb G# Hacen que me sienta esclavo y amo (1ra G ) (2da Cm G Cm ) Del universo
-------------------11----------------11----------------------10----------
----13-13-13-13-15----13----13-13-15----13-15-11----11-11-13----11-13----
-12----------------------12----------------------10-------------------13-
-------------------------------------------------------------------------
-------------------------------------------------------------------------
-------------------------------------------------------------------------

-------------------------------------11-13-
----------13-13-13-12-------12-13-15-------
-13-13-13-------------12-12----------------
-------------------------------------------
-------------------------------------------
-------------------------------------------

Compartilhe esta música: novo

QR Code
Copiar