Só Falta Você Aceitar

Hugo Henrique

Tom: D
D  A  Bm  E 
D  A  Bm 


Solo: 
E|----------------------------------------------------------------------------------------------------------------------| 
B|----------------------------------------------------------------------------------------------------------------------| 
G|----12/14--12---11-12-11-----------12/14--12---11-12-11-----------12/14--12---11-12-11--------------------9--11----9--| 
D|-------------------------12-----------------------------12-----------------------------12-----12------12--------12----| 
A|----------------------------------------------------------------------------------------------------------------------| 
E|----------------------------------------------------------------------------------------------------------------------| 

E|----------------------------------------------------------------------------------------------------------------------| 
B|----------------------------------------------------------------------------------------------------------------------| 
G|----12/14--12---11-12-11-----------12/14--12---11-12-11-----------12/14--12---11-12-11--------------------------------| 
D|-------------------------12-----------------------------12-----------------------------14----12/11--9-----------------| 
A|----------------------------------------------------------------------------------------------------------------------| 
E|----------------------------------------------------------------------------------------------------------------------|
D A Antes de dizer sim Bm Eu já espalho E D Que to namorando e que amanhã já caso D Então para de pensar A Vem correndo pra cá Bm Sem ter hora pra voltar, voltar, voltar D To fazendo mais de mil planos A Já tô pensando em tudo Bm Eu já to gritando para o mundo D Que vai casar comigo A Que vamos ter dois filhos Bm Morar na casa que você sempre sonhou D Que aqui tá tudo preparado já A Bm Só falta você aceitar D Que vai casar comigo A Que vamos ter dois filhos Bm Morar na casa que você sempre sonhou D Que aqui tá tudo preparado já A Bm Só falta você aceitar

Compartilhe esta música: novo

QR Code
Copiar