From The Dining Table

Harry Styles

Tom: D
D                Em               Bm               D 
E|----------------|----------------|----------------|----------------| 
B|----------------|----------------|----------------|----------------| 
G|----------------|----------------|----------------|2---------------| 
D|4---------------|----------------|4-----------4---|4---------------| 
A|5-----7-----5---|7-----5---------|5-----5---------|5---------------| 
E|----------------|------------5---|7---------------|----------------| 


     D                Em               D 
E|----------------|----------------|----------------| 
B|----------------|----------------|----------------| 
G|----------------|----------------|----------------|  
D|4---------------|----------------|4---------------| 
A|5-----7-----5---|7-----5---------|5---------------|  
E|----------------|------------5---|----------------|
verse 1 D Em Bm D Woke up alone in this hotel room D Em D Played with myself, where were you? D Em Bm D Fell back to sleep, I got drunk by noon D Em D I've never felt less cool Pre-Chorus
E|----------------|----------------|----------------|----------------| 
B|----------------|----------------|----------------|----------------| 
G|----2-5-----5---|4---2-2---------|----2-5-----5---|4---2-2---------| 
D|4-5-4-7-----7---|----4-4---------|4-5-4-7-----7---|----4-4---------| 
A|5-7-------------|------5---------|5-7-------------|------5---------| 
E|------5---5---5-|3-2-------------|------5---5---5-|3-2-------------| 


E|----------------|----------------|----------------|----------------| 
B|----------------|----------------|----------------|----------------| 
G|----2-5-----5---|4---2-2---------|--------0-0-0-0-|0---0-0-0---0-0-| 
D|4-5-4-7-----7---|----4-4---------|4-5/7---2-2-2-2-|0---0-0-0---0-0-| 
A|5-7-------------|------5---------|5-7/9---3-3-3-3-|2---2-2-2---2-2-| 
E|------5---5---5-|3-2-------------|--------3-3-3-3-|3---3-3-3---3-3-|
D Em F#m Am G F#m D We haven't spoke since you went away D Em F#m Am G F#m D Comfortable silence is so overrated D Em F#m Am G F#m D Why won't you ever be the first one to break? D Em F#m C G/B Even the phone misses your call, by the way D Em Bm D D Em D verse 2 D Em Bm D I saw your friend that you know from work D Em D He said you feel just fine D Em Bm D I see you gave him my old t-shirt D Em D More of what was once mine Pre-Chorus 2 D Em F#m Am G F#m D I see his grin, it's all over his face D Em F#m Am G F#m D Comfortable silence is so overrated D Em F#m Am G F#m D Why won't you ever say what you want to say? D Em F#m C G/B Even my phone misses your call, by the way D
D C G/B D C G/B Maybe one day you'll call me and tell me that you're sorry too D C G/B D C G/B Maybe one day you'll call me and tell me that you're sorry too D C G/B D C G/B Maybe one day you'll call me and tell me that you're sorry too C G/B But you, you never do
D Em Bm D verse 3 D Em Bm D Woke up the girl who looked just like you D Em D I almost said your name Pre-Chorus 3 D Em F#m Am G F#m D We haven't spoke since you went away D Em F#m Am G F#m D Comfortable silence is so overrated D Em F#m Am G F#m D Why won't you ever say what you want to say? D Em F#m C G/B Even my phone misses your call, D Em F#m Am G F#m D We haven't spoke since you went away D Em F#m Am G F#m D Comfortable silence is so overrated D Em F#m Am G F#m D Why won't you ever say what you want to say? D Em F#m C G/B Even my phone misses your call, by the way D Em Bm D C G/B

Compartilhe esta música: novo

QR Code
Copiar