That Dont Impress Me Much

Haim

Tom: D
Intro 

E|------------|  
B|------------| 
G|------------| 
D|------------| 
A|-0-0--2-3---| 
E|----------1-| (4x) 
verse 1 N.C. I've known a few guys who thought they were pretty smart But you've got being right down to an art You think you're a genius-you drive me up the wall You're a regular original, a know-it-all Pre-Chorus D A G Oh-oo-oh, you think you're special D A G Oh-oo-oh, you think you're something else
N.C. Okay, so you're a rocket scientist F C G Am That don't impress me much F C G Am So you got the brain but have you got the touch F C G Am Don't get me wrong, yeah I think you're alright F C G Am But that won't keep me warm in the middle of the night
E|-------------------|  
B|-~10~-8-~10~-8-10--| 
G|-------------------| 
D|-------------------| 
A|-------------------| 
E|-------------------| 

That don't impress me much 

Intro Riff 
E|------------|  
B|------------| 
G|------------| 
D|------------| 
A|-0-0--2-3---| 
E|----------1-| (2x) 


verse 2 
E|------------|  
B|------------| 
G|------------| 
D|------------| 
A|-0-0--2-3---| 
E|----------1-| (4x)
I never knew a guy who carried a mirror in his pocket And a comb up his sleeve-just in case And all that extra hold gel in your hair oughtta lock it 'Cause Heaven forbid it should fall outta place Pre-Chorus D A G Oh-oo-oh, you think you're special D A G Oh-oo-oh, you think you're something else
Chorus 2 

(Danielle plays) 
E|---------------|  
B|---------------| 
G|---------------| 
D|---------------| 
A|-----3---------| 
E|-1--1--3-3--3-5| (4x) 
N.C. Okay, so you're Brad Pitt F C G Am That don't impress me much F C G Am So you got the looks but have you got the touch F C G Am Don't get me wrong, yeah I think you're alright F C G Am But that won't keep me warm in the middle of the night
E|-------------------|  
B|-~10~-8-~10~-8-10--| 
G|-------------------| 
D|-------------------| 
A|-------------------| 
E|-------------------| 

That don't impress me much 

Intro Riff 

E|------------|  
B|------------| 
G|------------| 
D|------------| 
A|-0-0--2-3---| 
E|----------1-| (4x) 


Solo 

E|----------------|------------|---------------------|  
B|----------------|------------|-----------------~5~-| 
G|-(7)--h5~5~-7---|-(7)-~5~-h7-|-(7)-5~5~-----5--~5~-| 
D|----------------|------------|----------5-7--------| 
A|----------------|------------|---------------------| 
E|----------------|------------|---------------------| 

E|-------------------------------|----------------------------|---------------------------------|  
B|-------------------------------|----------------------------|--------8-~10~-8-10--------------| 
G|-------------------------------|-------------------5-5---5--|---7/9-------------9h7-5-7-~5~-7-| 
D|-7-h5--------------------------|---------5-~7~-5---5-5--~5~-|---------------------------------| 
A|-----6-/4-/3--5-/7-/5-/3-~5-5~-|-3-/5-/6--------------------|---------------------------------| 
E|-------------------------------|----------------------------|---------------------------------| 

E|--------------------------------|---------------8-8--~8~----------------------------------------|  
B|------8-~10~-8-10---------------|------~8~--10--8-8--~8~h10-------------------------------------| 
G|--7h9-------------9h7/5-7-~5~-7-|-7-/9----------------------9-/7-5-(7)-5h(7)-7-5-7h5------------| 
D|--------------------------------|----------------------------------------------------5h7-5h7-~5~| 
A|--------------------------------|---------------------------------------------------------------| 
E|--------------------------------|---------------------------------------------------------------|
verse 3 N.C. You're one of those guys who likes to shine his machine You make me take off my shoes before you let me get in I can't believe you kiss your car good night C'mon baby tell me-you must be jokin', right! Pre-Chorus D A G Oh-oo-oh, you think you're special D A G Oh-oo-oh, you think you're something else
Chorus 3 

(Danielle plays) 
E|---------------|  
B|---------------| 
G|---------------| 
D|---------------| 
A|-----3---------| 
E|-1--1--3-3--3-5| (4x) 
N.C. Okay, so you've got a car F C G Am That don't impress me much F C G Am So you got the moves but have you got the touch F C G Am Don't get me wrong, yeah I think you're alright F C G Am But that won't keep me warm on the long, cold, lonely night
E|-------------------|  
B|-~10~-8-~10~-8-10--| 
G|-------------------| 
D|-------------------| 
A|-------------------| 
E|-------------------| 

That don't impress me much 

Outro 
E|------------|  
B|------------| 
G|------------| 
D|------------| 
A|-0-0--2-3---| 
E|----------1-| (8x) 

Compartilhe esta música: novo

QR Code
Copiar