Nós

Emunah

Tom: A
(Vinícius Ferreira) 
 
     A                                    G 
Não me importa o que você ta fazendo agora 
                D      
Eu quero ir embora 
      Bm                                             A 
Te mostrar todas as coisas deste mundo que não presta 
        G 
E só fazem festa 
     D 
Não sabem viver 
       Bm                            A 
Espero que não aconteça isso com você 
      Em                           G Bm A 
Venha cá pra ver o mundo que vives 
 
  A                                   G 
Não me importa o que você pensa de mim 
                     D 
É melhor deixar assim 
   Bm                                                   
Pois senão logo mais vamos querer (mas sem poder) 
             A 
Voltar atrás 
     Em 
Me deixe em paz 
     G                                   A 
Vamos continuar só nos dois assim quietos 
                         Em 
Estamos num mundo incerto 
                     G Bm A                         
Sozinhos no universo 
 
  A                             G             
Será  que você vai querer a mais 
            D 
Vou te deixar em paz 
             Bm                          A 
E não falarei contigo ate amanha de manha 
      G 
Será que você entendeu 
      Em                        A 
O problema não é seu e nem é meu 
                     D G Bm A 
O problema é nosso... 
 
Solo: (D G Bm A)x2 
 
e|-10--12-10--12-14-10--12------------- 
B|--------------------------10--10-08-- 
G|------------------------------------- 
D|------------------------------------- 
A|------------------------------------- 
E|------------------------------------- 
 
e|-10--12-10--12-14-10--12----------------------------------- 
B|--------------------------10------------------------------- 
G|-------------------------------12-11-09------09-11-09------ 
D|----------------------------------------12-------------12-- 
A|----------------------------------------------------------- 
E|-----------------------------------------------------------
Em A O problema não é seu e nem é meu D O problema é nosso...

Compartilhe esta música: novo

QR Code
Copiar