Labirinto

Eliezer Gonçalves

Tom: Bm
Intro: Bm G D 

Riff da Introdução: 

E|---------------------------------------------------| 
B|----------------------10h12-10-12------------------| 
G|-----7---9h11-9-7-----------------9h11-------------| 
D|-7h9---9----------9p7----------------------7-7h9---| 
A|---------------------------------------7h9---------| 
E|-------------------------------------------------7-| 

E|-------------------------------------------------------| 
B|----------------------10h12-10-12----------------------| 
G|-----7---9h11-9-7-----------------9h11-----------------| 
D|-7h9---9----------9p7----------------------7h9p7-------| 
A|---------------------------------------7h9-------9p7---| 
E|-----------------------------------------------------7-| 
Bm O que está acontecendo A Não consigo te ver G O que está acontecendo A Com a sua vida Bm O que está acontecendo A As flores morrem em suas mãos G O que está acontecendo A Com a sua sensibilidade Riff do Refrão:
E|-10-10-10-10-10-10/14-14-14\9-9-9-9-9-9-9/14-14-14\7-7-7-7-7-7-7-7-7/9-9-9-9-9-9-9-9-9-| 
B|---------------------------------------------------------------------------------------| 
G|---------------------------------------------------------------------------------------| 
D|---------------------------------------------------------------------------------------| 
A|---------------------------------------------------------------------------------------| 
E|---------------------------------------------------------------------------------------| (2x) 
Bm Você conhece o caminho A Você conhece a essência perfeita do amor G Então, por que A Andar em labirintos (2x) Bm Chega perto de mim A Sinta a minha pulsação G Se me sinto triste A Imagina quem me projetou Bm Todo com amor A A sua imagem e perfeição G Então, por que A Andar em labirintos Bm Você conhece o caminho A Você conhece a essência perfeita do amor G Então, por que A Andar em labirintos (2x)
Solo: 
E|-----------------------------------------------------------------------| 
B|------------------------------------12b14-15r14-10-12------------------| 
G|-----7-7-11r9-7-11b12-7-9-9b11r9b11-------------------11h12-11-12-9h11-| 
D|-7h9-------------------------------------------------------------------| 
A|-----------------------------------------------------------------------| 
E|-----------------------------------------------------------------------| 

E|------------------------------------------------------------------------10-10-| 
B|----12----10h12-12-12-10-9-12-10-8--------------------10-12-------------------| 
G|-11----11--------------------------11-9-7--------9/11-------11\9-7-9/11-------| 
D|------------------------------------------11-9-7------------------------------| 
A|------------------------------------------------------------------------------| 
E|------------------------------------------------------------------------------| 

E|---------------------------------------------------------------------------| 
B|---------------------------------------------------------------------------| 
G|---------------------------------------------------------------------------| 
D|-------------11-12-14-12-11----------------------12-14-16-14-12------------| 
A|-------12-14----------------14-12-11-------12-14----------------16-14-12---| 
E|-12-14-------------------------------12-14---------------------------------| 

E|------------------------------| 
B|------------------------------| 
G|------------------------------| 
D|-12-----12--12h14--12---------| 
A|-12h14------12-----12---------| 
E|------------------------------| 
Bm Chega perto de mim A Sinta a minha pulsação G Se me sinto triste A Imagina quem me projetou Bm Todo com amor A A sua imagem e perfeição G Então, por que A Andar em labirintos Bm Você conhece o caminho A Você conhece a essência perfeita do amor G Então, por que A Andar em labirintos (2x) Bm Eu sei que crescemos A Mas nosso algo não mudou G Ele está aí A Então, por que Bm Eu sei que crescemos A Mas nosso algo não mudou G Ele está aqui A Então, por que Bm Você conhece o caminho A Você conhece a essência perfeita do amor G Então, por que A Andar em labirintos (2x)

Compartilhe esta música: novo

QR Code
Copiar