Sou Um Milagre

Discopraise

Tom: C
C F/A   


E|-----------------------| 
B|-6-6-6-5~---6-6-6-6/8~-| 
G|-5-5-5-5~---5-5-5-5/7~-| 
D|-7-7-7-5~---7-7-7-7/9~-| 
A|-----------------------| 
E|-----------------------| 


Riff 1 

E|--------------------| 
B|--------------------| 
G|--------------------| 
D|---0-2-3-2-0-2-3-0--| 
A|-3------------------| 
E|--------------------| 


Riff 2 

E|--------------------| 
B|--------------------| 
G|--------------------| 
D|--------------------| 
A|-----3------3-0-5---| 
E|-3-5----3-5---------| 


Riff 3 

E|-----------------| 
B|-----------------| 
G|-----------------| 
D|-----------------| 
A|---------3-0-5---| 
E|-----3-5---------| 
C G Nunca houve noite, que pudesse impedir F C O nascer do sol e a esperança C G E não há problema que possa impedir F C As mãos de Jesus pra me ajudar (2x) Am G Haverá milagre dentro de mim E4 E7 Am Vem descendo o rio pra me dar a vida F C Este rio que emana lá da cruz G Do lado de Jesus (2x) C E4 E7 Am C7 Aquilo que parecia impossível (Riff 1) F G/F C4 C Aquilo que parecia não ter saída E4 E/G# Am Aquilo que parecia ser minha morte G F C/G Mas Jesus mudou minha sorte Gsus C Sou um milagre, estou aqui (2x) Intro: C F/A C G Nunca houve noite, que pudesse impedir F C O nascer do sol e a esperança C G E não há problema que possa impedir F C As mãos de Jesus pra me ajudar Am G Haverá milagre dentro de mim E4 E7 Am Vem descendo o rio pra me dar a vida F C Este rio que emana lá da cruz G Do lado de Jesus C E4 E7 Am C7 Aquilo que parecia impossível (Riff 1) F G/F C4 C Aquilo que parecia não ter saída E4 E/G# Am Aquilo que parecia ser minha morte G F C/G Mas Jesus mudou minha sorte Gsus C Sou um milagre, estou aqui (Riff 2) Dm F C Usa-me sou o teu milagre (Riff 3) Dm F C Usa-me eu quero te servir (Riff 2) Dm F C Usa-me sou a tua imagem (Riff 3) Dm F C Usa-me ó filho de Davi Solo C E4 E7 Am C7 F G/F C4 C E4 E/G# Am G F C/G Gsus C
E|----------------------------------| 
B|----------------------------------| 
G|----------------------------------| 
D|-------0-2-2--2-2--2-2-0----------| 
A|--0-2-3-------------------3-2-2/3~| 
E|-3--------------------------------| 


E|--------------------------------------------| 
B|--------------------------------------------| 
G|--------------------------------------------| 
D|-------0-2-3-2-0-2-3-2-0------------0-2/3-2~| 
A|--0-2-3------------------3-2-2-2-2-3--------| 
E|-3------------------------------------------| 


E|--------------------------------| 
B|--------------------------------| 
G|--------------------------------| 
D|-2-2-0-0------------------------| 
A|---------3-3/5~--5-5-3-3-2-2/3~-| 
E|--------------------------------| 


E|---------12~--------10~--------8~~-| 
B|-----------------------------------| 
G|-11-11/12-----9-9/10-----7-7/8-----| 
D|-----------------------------------| 
A|-----------------------------------| 
E|-----------------------------------| 
C E4 E7 Am C7 Aquilo que parecia impossível F G/F C4 C Aquilo que parecia não ter saída E4 E/G# Am Aquilo que parecia ser minha morte G F C/G Mas Jesus mudou minha sorte Gsus Sou um milagre, estou aqui Intro 2x: C F/A

Compartilhe esta música: novo

QR Code
Copiar