Ja Era

Dibob

Tom: G
Cifra corrigida para a versão original do novo CD

Intro: ( G Em C D )

e|-------------------------------------8-8-7-7-------|
B|---------5-------------5-----8-8-7-8---------8-----|
G|-5-7-5-7---7-5-7-4-5-7---7-5-----------------------|
D|---------------------------------------------------|
A|---------------------------------------------------|
E|---------------------------------------------------|
G Em Já me disseram que coleira não era pra mim C D Como é que eu pude duvidar? G Em Agora eu tô solteiro, sei que vai ser maneiro C D E nada pode atrapalhar C B Ser exclusivo só me dava um trabalho E G Na vida tudo tem um fim C B Você voltou a ser mais uma no baralho E B C D G Esse jogo agora tá pra mim G E eu ainda sou feliz Am Bm Am Com os amigos vou seguir em frente, em frente G E eu ainda sou feliz Am Bm Am Com os amigos vou seguir em frente, em frente G Feliz
  Antes do solo ele faz isso! 
e|------------------------------------|
b|-----------5-------------5----------|
G|-5-7-4-5-7---7-5-7-4-5-7---7-5-7----|
D|------------------------------------|
A|------------------------------------|
E|------------------------------------|


e|-------------------------------------8-8-7-7-------|
B|---------5-------------5-----8-8-7-8---------8-----|
G|-5-7-5-7---7-5-7-4-5-7---7-5-----------------------|
D|---------------------------------------------------|
A|---------------------------------------------------|
E|---------------------------------------------------|
G Em Já me disseram que coleira não era pra mim C D Como é que eu pude duvidar? G Em Agora eu tô solteiro, sei que vai ser maneiro C D E nada pode atrapalhar C B Ser exclusivo só me dava um trabalho E G Na vida tudo tem um fim C B Você voltou a ser mais uma no baralho E B C D G Esse jogo agora tá pra mim G E eu ainda sou feliz Am Bm Am Com os amigos vou seguir em frente, em frente G E eu ainda sou feliz Am Bm Am Com os amigos vou seguir em frente, em frente G Feliz C D Bm Eu posso não ligar se ela não reclamar Em D Eu não tô nem aí pra isso C D Bm Lhe dar satisfação não é comigo não Em D Já tô legal de compromisso C D Bm Eu posso não ligar se ela não reclamar Em D Eu não tô nem aí pra isso C D Bm Lhe dar satisfação não é comigo não Em D Já tô legal de compromisso ( C D Bm Em D ) 2x Paulinho_Jpa

Compartilhe esta música: novo

QR Code
Copiar