Tom: G5
-Intro 1- guitarra 1 

e|--------------------------------------- 
B|--------------------------------------- 
G|--------------------------------------- 
D|---------------------5---5---5--------- 
A|-----5---5---5---3-3---3---3---3------- 
E|-3-3---3---3---3----------------------- 

e|--------------------------------------- 
B|--------------------------------------- 
G|--------------------------------------- 
D|--------------------------------------- 
A|-----7---7---7---7---7---7------------- 
E|-5-5---5---5---5---5---5--------------- 

-Intro 2- <-- este intro va con distorsion 

     G5    C5        A5 
e|--------------------------------------- 
B|--------------------------------------- 
G|----------5-5-5-5---------------------- 
D|-5-5-5-5--5-5-5-5--7-7-7-7-7-7--------- 
A|-5-5-5-5--3-3-3-3--7-7-7-7-7-7--------- 
E|-3-3-3-3-----------5-5-5-5-5-5--------- 
                    (Palm Muted) 


Guitarra 2 sin disto 

e|---------------------------------------------------------------- 
B|---------------------------------------------------------------- 
G|---------------7-7-7-7-9-9-9-9---------------------------------- x2 
D|--9-9-9-9-9-9--------------------------------------------------- 
A|-------------------------------9-9-9-9-9-9-12-12-12-10-10-10-9-9 
E|---------------------------------------------------------------- 
G5 C5 D5 Esta suerte nos coloca frente a frente aqui hoy D5 Se que no haz venido sola yo tampoco lo estoy C5 D5 Todo el mundo esta observando nuestro encuentro casual G5 Yo se bien que esta mal, yo se bien que esta mal G5 C5 D5 Que la musica tan alta no es comunicacion G5 Por que no vamos a un sitio donde estemos mejor C5 D5 Y nos desaparecemos de este evento social Puedes ver que me brillan los ojos -CORO- G5 C5 D5 Te veo en diez minutos en el fondo de los sanitarios G5 Nuestro encuentro es justo y necesario, C5 D5 G5 No soporto tenerte lejos quiero hacertelo frente al espejo C5 D5 G5 Siempre te haz deshinibido ante los actos prohibidos C5 D5 G5 Si tu sientes lo que siento aprovechemos el momento G5 C5 D5 Son las cosas tontas que me hace decir el alcohol G5 Que no puedo sino pedirte mil veces perdon C5 D5 A demas, en algun sitio alguien te debe esperar G5 no te quiero atrasar, no te quiero atrasar
Guitarra 2 
(1:26) 

e|---17-15-----17-15-----17-15-----17b-17-15-- 
B|---------15--------15--------15------------- 
G|-------------------------------------------- 
D|-------------------------------------------- 
A|-------------------------------------------- 
E|-------------------------------------------- 


e|---17-15-----17-15-----17-15-----17b-------- 
B|---------15--------15--------15------------- 
G|-------------------------------------------- 
D|-------------------------------------------- 
A|-------------------------------------------- 
E|--------------------------------------------
C5 D5 Me paceria justo que algo pienses tambien G5 Que cuando estubimos juntos la pasamos muy bien C5 D5 Teniendote tan cerca reconosco el olor De la parte de atras de tu cuello -CORO- G5 C5 D5 Te veo en diez minutos en el fondo de los sanitarios G5 Nuestro encuentro es justo y necesario, C5 D5 G5 No soporto tenerte lejos quiero hacertelo frente al espejo C5 D5 G5 Siempre te haz deshinibido ante los actos prohibidos C5 D5 G5 E5 Si tu sientes lo que siento aprovechemos el momento C5 G5 No tengo que hablar y no tienes que hablar D5 E5 Por una bella noche noche magica C5 G5 �Cuanto te atreves a arriesgar? E5 C5 G5 Se que tienes tu vida muy lejos de la mia D5 E5 Solo un momento nada mas C5 G5 Si parpadeas ya no esta
Guitarra 2 
(2:23) 

e|-------------------------------------------- 
B|-------------------------------------------- 
G|------7*---------12*----7*------------------ 
D|---7*----7*--12*-----7*----7*--------------- x2 
A|-------------------------------------------- 
E|-------------------------------------------- 

En esta parte la guitarra 2 hace el punteo del intro 

e|---------------------------------------------------------------- 
B|---------------------------------------------------------------- 
G|---------------7-7-7-7-9-9-9-9---------------------------------- 
D|--9-9-9-9-9-9--------------------------------------------------- 
A|-------------------------------9-9-9-9-9-9-12-12-12-10-10-10-9-9 
E|----------------------------------------------------------------
-CORO- G5 C5 D5 Te veo en diez minutos en el fondo de los sanitarios G5 Nuestro encuentro es justo y necesario, C5 D5 G5 No soporto tenerte lejos quiero hacertelo frente al espejo C5 D5 G5 Siempre te haz deshinibido ante los actos prohibidos C5 D5 G5 Si tu sientes lo que siento aprovechemos el momento

Compartilhe esta música: novo

QR Code
Copiar