Por que tocou meu coração?

Calcinha Preta

Tom: C#
C#           Fm          A#m 
  por que tocou meu coração  
      G#          F# 
e deixar em suas mãos me diz pra 
C#                   D#m           G# 
onde foi que eu não sei o que fazer. 
C#         Fm          A#m                    
  Você chegou e mim ganhou  
        G#               F# 
nunca fui de ninguém assim mim diz pra  
C#               D#m          G#  
onde foi que te quero outra vez. 
C#            D#m  
  Eu preciso te encontrar  
G#           C# Fm A#m 
com você quero ficar eu não vejo a  
F#          D#m        G# C# 
hora de poder te abraçar.(2x) 
F#              G#      
 Saiba que sou seu amor  
        C#     Fm     A#m  
que não quero te perder  
   F#           D#m 
não amor no mundo  
   F#        G#  
nao amor maior. 
C#            D#m  
  Eu preciso te encontrar  
G#           C# Fm A#m 
com você quero ficar eu não vejo a  
F#          D#m        G# na segunda vez G# C# 
hora de poder te abraçar.(2x) 
Solo: 
E-------------------------------------------------------------- 
B--2-4-4/6-4-2-1-2---2-1--------------------------------------- 
G-1----------------------1-3-222/4-2--4/6-4-2-4-2-1-2---------- 
D-------------------------------------------------------------- 
A-------------------------------------------------------------- 
E-------------------------------------------------------------- 
 
E--------------------------4/6-4-2-1-2-1-----------4-6-4-2-1--- 
B--2-4-4/6-4-6/7-6-2---2-1--------------2---2-2-3-2?--------4-2 
G-1--------------------------------------1-3------------------- 
D-------------------------------------------------------------- 
A-------------------------------------------------------------- 
E-------------------------------------------------------------- 
  
E---------1-2-4-4/6-------------------------------------------- 
B----1-2-4----------------------------------------------------- 
G-1-3---------------------------------------------------------- 
D-------------------------------------------------------------- 
A-------------------------------------------------------------- 
E-------------------------------------------------------------- 
A dor não é suficiente para dizer como eu sinto, nos somos Tão felizes juntos, mais agora eu sei que você se foi, você disse que jamais iria me abandonar sempre que eu precisa-se você estaria aki eu posso te perdoar mais não posso te esquecer e mesmo que você tenha me deixado ainda te amo... Ainda te amo. F# G# Saiba que sou seu amor C# Fm A#m que não quero te perder F# D#m não amor no mundo F# G# A nao amor maior. D Em Eu preciso te encontrar A D A/C# Bm com você quero ficar eu não vejo a G Em A na ultima vez faz G A Bm hora de poder te abraçar.(3x) G A D hou hou yer yer yerr

Compartilhe esta música: novo

QR Code
Copiar