Nubes

Caifanes

Tom: Bm
Intro:  Bm  F#m  Bm  F#m 
        Bm  F#m  Bm  F#m 

E|-10p7-(10p7)--10p7--------------------------|-10p7-(10p7)--10s12----9p5---9p5--| 
B|-----------------------10p7-(10p7)--10p7----|----------------------------------| 
G|--------------------------------------------|----------------------------------| 
D|--------------------------------------------|----------------------------------| 
A|--------------------------------------------|----------------------------------| 
E|--------------------------------------------|----------------------------------| 


E|-10p7-(10p7)--10p7--------------------------|-10p7-(10p7)--10p7----------------| 
B|-----------------------10p7-(10p7)--7-10p7--|-----------------------10-7v~-----| 
G|--------------------------------------------|----------------------------------| 
D|--------------------------------------------|----------------------------------| 
A|--------------------------------------------|----------------------------------| 
E|--------------------------------------------|----------------------------------|
Bm F#m Parecemos nubes Bm F#m Que se las lleva el viento Bm F#m Cuando hay huracanes Bm F#m Cuando hay mal de amores Bm F#m Parecemos presos Bm F#m Y como presos pensamos Bm F#m Escapar uno del otro Bm F#m Y cometer la fuga D A Vamos a dar una vuelta al cielo Bm F#m Para ver lo que es eterno D A Vamos a dar una vuelta al cielo Bm F#m Para ver lo que es eterno Ponte: Bm F#m Bm F#m Bm F#m Bm F#m
E|-----2-5-3-2----------------5-4~--5-4~--| 
B|---3----------2-5-3-------3-------------| 
G|-4------------------4---4---------------|   (2x) 
D|----------------------------------------| 
A|----------------------------------------| 
E|----------------------------------------| 
Bm F#m Pensaras que soy un perro Bm F#m Que en el cerebro tengo moquillo Bm F#m Que ladro y que no muerdo Bm F#m Y que soy un mal agradecido Bm F#m Tengo garras, tengo dientes Bm F#m Y defiendo lo que tengo Bm F#m Ay, amor ya no me entiendes Bm F#m Porque muerdo y ya no suelto D A Vamos a dar una vuelta al cielo Bm F#m Para ver lo que es eterno D A Vamos a dar una vuelta al cielo Bm F#m Para ver lo que es eterno
Solo 


E|----------------------------------------------------|----------------------------------------| 
B|----------------------------------------------------|----------------------------------------| 
G|----14---13--11-------------------------------------|----14---13-11--14s16~--14--13h14--11~--| 
D|-12----x--------14s16---14s16s14-12--14s16(s14s12)--|-12----x--------------------------------| 
A|----------------------------------------------------|----------------------------------------| 
E|----------------------------------------------------|----------------------------------------| 


E|----------------------------------------------------|----------------------------------------| 
B|----------------------------------------------------|----------------------------------------| 
G|----19----18-----16------14----18----16-----14------|----14-15-14----------------------------| 
D|-16----16-----16------14----14----14-----14----16---|-16----------16---14s16--16-16-16--16s14| 
A|----------------------------------------------------|----------------------------------------| 
E|----------------------------------------------------|----------------------------------------|
Ponte: D A Bm F#m D A Bm F#m D A Vamos a dar una vuelta al cielo Bm F#m Para ver lo que es eterno D A Vamos a dar una vuelta al cielo Bm F#m Para ver lo que es eterno D A Vamos a dar una vuelta al cielo Bm F#m Para ver lo que es eterno D A Vamos a dar una vuelta al cielo Bm F#m Para ver lo que es eterno
Solo 2 

E|-----------------------------------------------------------------|----------------------------------17b19v~~--| 
B|-------15--15-------15-------15--------17--17-------17-------17--|-------19--19-------19-------19-------------| 
G|-14b16--------14b16----14b16-----16b18--------16b18----16b18-----|-18b19--------18b19----18b19----------------| 
D|-----------------------------------------------------------------|--------------------------------------------| 
A|-----------------------------------------------------------------|--------------------------------------------| 
E|-----------------------------------------------------------------|--------------------------------------------| 


E|-----------------------------------------------------------------|----------------------------------17b19v~~--| 
B|-------15--15-------15-------15--------17--17-------17-------17--|-------19--19-------19-------19-------------| 
G|-14b16--------14b16----14b16-----16b18--------16b18----16b18-----|-18b19--------18b19----18b19----------------| 
D|-----------------------------------------------------------------|--------------------------------------------| 
A|-----------------------------------------------------------------|--------------------------------------------| 
E|-----------------------------------------------------------------|--------------------------------------------| 
D A Vamos a dar una vuelta al cielo Bm F#m Para ver lo que es eterno D A Vamos a dar una vuelta al cielo Bm F#m Para ver lo que es eterno D A Vamos a dar una vuelta al cielo Bm F#m Para ver lo que es eterno D A Vamos a dar una vuelta al cielo Bm F#m Para ver lo que es eterno

Compartilhe esta música: novo

QR Code
Copiar