Choro Choro

Bruno e Marrone

Tom: C
Intro: C (C  Dm  F  C) (2x)  
 
Faça o acorde C, é por ele que o solo irá começar!!!! 
 
Durante o solo, o outro violão faz a sequência acima. 
 
E------------------------------------------------------------------------------------------------- 
B---------------------6-5-6-8/10-8-6-5-3/5-3-1-3-1---------------------6-5-6-3/5-3-1-3-1-5-3-1-0-1 
G------------------------------------------------------------------------------------------------- 
D---2-5-5/7-5-2--------------------------------------2-5-5/7-5-2---------------------------------- 
A-3-------------3-3/5------------------------------3-------------3-3/5---------------------------- 
E-------------------------------------------------------------------------------------------------
C Saudade de você Dm Vontade de te ver F Depois que eu te perdi G C G Eu nunca mais te vi não deu pra te esquecer C Um dia prometeu Dm Amor e não me deu F Por um motivo só G C C7 Você não teve dó e desapareceu
F G E hoje eu choro choro choro C Am Por seu amor a deus imploro Dm G Vem logo e traz o meu desejo C C7 Que eu to com medo F G O sol é o brilho dos seus olhos C Am A brisa é o beijo dos seus lábios Dm G C A tarde cai e a noite eu choro choro choro
(C Dm F C) 2X
E------------------------------------------------------------------------------------------------- 
B---------------------6-5-6-8/10-8-6-5-3/5-3-1-3-1---------------------6-5-6-3/5-3-1-3-1-5-3-1-0-1 
G------------------------------------------------------------------------------------------------- 
D---2-5-5/7-5-2--------------------------------------2-5-5/7-5-2---------------------------------- 
A-3-------------3-3/5------------------------------3-------------3-3/5---------------------------- 
E------------------------------------------------------------------------------------------------- 
C Saudade de você Dm Vontade de te ver F Depois que eu te perdi G C G Eu nunca mais te vi não deu pra te esquecer C Um dia prometeu Dm Amor e não me deu F Por um motivo só G C C7 Você não teve dó e desapareceu
F G E hoje eu choro choro choro C Am Por seu amor a deus imploro Dm G Vem logo e traz o meu desejo C C7 Que eu to com medo F G O sol é o brilho dos seus olhos C Am A brisa é o beijo dos seus lábios Dm G C C7 A tarde cai e a noite eu choro choro choro F G por isso eu choro choro choro C Am Por seu amor a deus imploro Dm G Vem logo e traz o meu desejo C C7 Que eu to com medo
F G O sol é o brilho dos seus olhos C Am A brisa é o beijo dos seus lábios Dm G C G/B Am A tarde cai e a noite eu choro choro choro Dm G F F G C A tarde cai e a noite eu choro choro choro

Compartilhe esta música: novo

QR Code
Copiar