Diary of Jane

Breaking Benjamin

Tom: Am
(intro - batida) 

  Am 
--- -0-----0-----0----0----0-1-------0-----0-----3--1---0--------| 
---- 1-----1-----1----1----1---------1-----1-----1--1---1--------| 
--- -3-----3-----3----3----3---------3-----3-----3--3---3--------| 
-2---2-----2-----2----2----2---------2-----2-----2--2---2--------| 
-0---0-----0-----0----0----0---------0-----0-----0--0---0--------| 
-----------------------------------------------------------------| 

(verso e acordes do coro) 

  Am	F	G	C	D	B5 
--0-----1--------3--------0-------2----------------| 
--1-----1--------0--------1-------3----------------| 
--3-----2--------0--------0-------2--------4-------| 
--2-----3--------0--------2-------0--------4-------| 
--0-----0--------2--------3--------------- 2-------| 
-----------------3---------------------------------| 

(solo do coro) (opcional para segundo violão) 

-----9--8--9--8--9--11----9---8---9/11—11/13---13/11---11---| 
------------------------------------------------------------| 
------------------------------------------------------------| 
------------------------------------------------------------| 
------------------------------------------------------------| 
------------------------------------------------------------| 

-----9--8--9--8--9--11---9--8—9/11---11/13---13/11--11-------| 
-------------------------------------------------------------| 
-------------------------------------------------------------| 
-------------------------------------------------------------| 
-------------------------------------------------------------| 
-------------------------------------------------------------| 

-6--8--9--11--9--11--14--13---------------------------------| 
------------------------------------------------------------| 
------------------------------------------------------------| 
------------------------------------------------------------| 
------------------------------------------------------------| 
------------------------------------------------------------|
Am If I had to, Am I would put myself right beside you Am So let me ask F Would you like that? G Would you like that? Am And I don't mind Am If you say this love is the last time Am So now I'll ask F Do you like that? G Do you like that? No…. Am Something's getting in the way F Something's just about to break C G F I will try to find my place in the diary of Jane G So tell me how it should be (intro) Am Try to find out what makes you tick Am As I lie down Am Sore and sick F Do you like that? G Do you like that? Am There's a fine line between love and hate Am And I don't mind Am F Just let me say that I like that G That I like that Am Something's getting in the way F Something's just about to break C G Am I will try to find my place in the diary of Jane As I burn another page F As I look the other way C G I still try to find my place in the diary of Jane F G Am So tell me how it should be
(solo da ponte) (opcional para segundo violão) 

------------------------------------------------------------| 
--11--13--9----------9------------11--13--9---------9--9/11-| 
-------------8/10-10----8--7----------------8/10-10---------| 
------------------------------8-----------------------------| 
------------------------------------------------------------| 
------------------------------------------------------------|
C Desperate, I will crawl G Waiting for so long Am No love, there is no love C Die for anyone G What have I become Am Something's getting in the way F Something's just about to break C G Am I will try to find my place in the diary of Jane Am As I burn another page F As I look the other way C G I still try to find my place Am In the diary of Jane (intro)

Compartilhe esta música: novo

QR Code
Copiar