Despacito

Boyce Avenue

Tom: Am
Capotraste na 1ª casa
E|------3-------2------0--------0--------------------| 
B|------------------0---------0---0---0--------------| 
G|--2/4-----4/2-------------0-------0----------------| 
D|---------------------------------------------------| 
A|----------------------2----------------------------| 
E|---------------------0-----------------------------| 


E|--3-2-0---------3-2--0--2-3---3---3-2-3---5----5--| 
B|--------3-1---1-------------3----------------3----| 
G|------------0-------------------------------------| 
D|------------------------------------------0-------| 
A|----------3---------------------------------------| 
E|--------------------------3-----------------------| 


Violão 2 -  
ªcasa 
                         

       Am       F              C             G 
E|---------1-------------1------------1---------1---------| 
B|-2-----2----2--------2-----2-----2------4----4----------| 
G|-----3-------------3-----------1------------1-----------| 
D|---3-------------4-----------3-------------1------------| 
A|-1-------------4-----------4----------------------------| 
E|------------2---------------------------4---------------| 
Em C Sí, sabes que ya llevo un rato mirándote G D Tengo que bailar contigo hoy (DY) Em C Vi que tu mirada ya estaba llamándome G D Muéstrame el camino que yo voy (oh) Riff 1 Em C Tú, tú eres el imán y yo soy el metal G Me voy acercando y voy armando el plan D Solo con pensarlo se acelera el pulso (oh, yeah) Em C Ya, ya me está gustando más de lo normal G Todos mis sentidos van pidiendo más D Esto hay que tomarlo sin ningún apuro Despacito Em C Quiero respirar tu cuello despacito G Deja que te diga cosas al oído D Para que te acuerdes si no estás conmigo Despacito Em C Quiero desnudarte a besos despacito G Firmo en las paredes de tu laberinto D Y hacer de tu cuerpo todo un manuscrito Em Quiero ver bailar tu pelo C Quiero ser tu ritmo G Que le enseñes a mi boca D Tus lugares favoritos Em C Déjame sobrepasar tus zonas de peligro G Hasta provocar tus gritos D Y que olvides tu apellido Pasito a pasito, suave suavecito Nos vamos pegando, poquito a poquito Y es que esa belleza es un rompecabezas Pero pa montarlo aquí tengo la pieza Despacito Em C Quiero respirar tu cuello despacito G Deja que te diga cosas al oído D Para que te acuerdes si no estás conmigo Despacito Em C Quiero desnudarte a besos despacito G Firmo en las paredes de tu laberinto D Y hacer de tu cuerpo todo un manuscrito Em Quiero ver bailar tu pelo C Quiero ser tu ritmo G Que le enseñes a mi boca D Tus lugares favoritos Em C Déjame sobrepasar tus zonas de peligro G Hasta provocar tus gritos D Y que olvides tu apellido Despacito Vamos a hacerlo en una playa en Puerto Rico Hasta que las olas griten: ¡Ay, bendito!
E|--------------------------------------------------------------------------------------------| 
B|--------------------------------------------------------------------------------------------| 
G|-------------------10-11-13---11p10h11p10--------------------------------------------8------| 
D|----------10-11-13-------------------------13--11--11p10h11p10------------10-11-10----------| 
A|----11-13-------------------------------------------------------13-11-13--------------------| 
E|--------------------------------------------------------------------------------------------| 
Para que mi sello se quede contigo Riff 1 Em Quiero ver bailar tu pelo C Quiero ser tu ritmo G Que le enseñes a mi boca D Tus lugares favoritos Em C Déjame sobrepasar tus zonas de peligro G Hasta provocar tus gritos D Y que olvides tu apellido Despacito...

Compartilhe esta música: novo

QR Code
Copiar