Trouble Free

Booze And Glory

Tom: B
Intro: B B  F# F#  G# G# E F# (x2) 
e|----------------------------------------------------------------| 
B|------------------8---8/9\8-------------------8-----8/9\8-------| 
G|--9--9-9-11--9-11---11-----11-9--9-9-11--9-11----11-------11-9--| 
D|----------------------------------------------------------------| 
A|----------------------------------------------------------------| 
E|----------------------------------------------------------------| 
Verse B F# One day they locked you up B F# In action's wormwood scrubs B E F# And you realized that you've lost your chance B F# They took your boots away B F# They don't care what you gotta say B E F# You will look at the world through the metal gate
B F# G# E F# You're alone, you're alone but trouble free .... B F# G# E F# No need to pay the bills or worry about anything .... B F# E F# Girls won't cheat on you, like they always used to do B F# G# E F# You are left alone – so forget about dreams ....
Instrumental 
e|----------------------------------------------------------------| 
B|----------------------------------------------------------------| 
G|------------------8---8/9\8-------------------8-----8/9\8-------| 
D|--9--9-9-11--9-11---11-----11-9--9-9-11--9-11----11-------11-9--| 
A|----------------------------------------------------------------| 
E|----------------------------------------------------------------|
Verse B F# No more walking down the street B F# No more pubs and no more beer B E F# No more singing with the boys at Upton Park B F# It's just you and the empty cell B F# Like a holiday in hell B E F# But this is what your life is all about
B F# G# E F# You're alone, you're alone but trouble free .... B F# G# E F# No need to pay the bills or worry about anything .... B F# E F# Girls won't cheat on you, like they always used to do B F# G# E F# You are left alone – so forget about dreams ....
Instrumental: B B F# F# G# G# E F# (x2)
Solo 
e|------------------------------------------------| 
B|------------------------------------------------| 
G|--8-------------8-9-8----8-------------8-9-8----| 
D|---11-9-11-9-11--9---11---11-9-11-9-11--9---11--| 
A|------------------------------------------------| 
E|------------------------------------------------| 

e|-----------------------------------------------------------------------| 
B|--7-7--9-----------------------------7-7--9----------------------------| 
G|---------6-6------8-8----8-9-8--------------6-6------8-8----8-9-8------| 
D|--------------9-11-----11------11-9--------------9-11-----11------11-9-| 
A|-----------------------------------------------------------------------| 
E|-----------------------------------------------------------------------|
Outro B F# G# E F# You're alone, you're alone but trouble free .... B F# G# E F# No need to pay the bills or worry about anything .... B F# E F# Girls won't cheat on you, like they always used to do B F# G# E F# You are left alone – so forget about dreams .... B F# G# E F# You're alone, you're alone but trouble free .... B F# G# E F# No need to pay the bills or worry about anything .... B F# E F# Girls won't cheat on you, like they always used to do B F# G# E F# B B You are left alone – so forget about dreams ..........

Compartilhe esta música: novo

QR Code
Copiar