Tom: C
Tuning: Drop C 

Intro 
   Dm       F         C        A#    (x4)
 
d|------------------|----------------| 
A|--------8---------|-10----13-------| 
F|-7h9------7-------|----------12----| 
C|------------------|----------------| 
G|------------------|----------------| 
C|------------------|----------------| 
Verse Dm F You fucked up but it will be okay C A# We all make our mistakes someday Dm F C If we fail, at least we know we've tried A# I swear I have tried
Dm F My father said take it easy son C There are those days in life A# You have to stay strong Dm F Keep your head up high C A# There's always a reason to fight Dm F C A# so hold on.. hold on.. Dm F C A# hold on.. hold on..
Verse Dm F C I wish I could have been there for you A# Like you al..ways have been there for me Dm F C I forgot when you and mum split up A# I took off, I didn't give a fuck Dm F But I cared as much as i could care C A# Couldn't move, I was shocked and stared Dm F C At our house I watched it fall apart A# Damage done, no restart
Dm F My father said take it easy son C There are those days in life A# You have to stay strong Dm F Keep your head up high C A# There's always a reason to fight Dm F C A# so hold on.. hold on.. Dm F C A# hold on.. hold on..
Instrumental Dm F C A# (x2)
d|----------------------------|------------------------| 
A|----------------------------|-8h10p8h10--------------| 
F|-9h10p9h10------------7-----|--------------10----9---| 
C|---------------10-----------|------------------------| 
G|----------------------------|------------------------| 
C|----------------------------|------------------------|
Dm F I fucked up but it will be okay C A# We all make our mistakes someday Dm F C If we fail, at least we know we've tried A# For Fuck's sake I've tried
Dm F My father said take it easy son C There are those days in life A# You have to stay strong Dm F Keep your head up high C A# There's always a reason to fight Dm F C A# so hold on.. hold on.. Dm F C A# hold on.. hold on..
Outro Dm

Compartilhe esta música: novo

QR Code
Copiar