El Corazón Me Arde

Andrés Suárez

Tom: D
Intro: D Am G (x2) 

        D         Am      G         D       Am            G 
-------------------------------|---------------------------------- 
-------------------------------|---------------------------------- 
-------------------------------|---------------------------------- 
-------------------------------|---------------------------------- 
----5h7-9-9--9/7/5--3--7-5-3/2-|---5h7-9-9--9/7/5/10----7b--5-5--- 
--5----------------------------|--5------------------------------- 
D D/A# Del norte, como yo, perdida, como todos, duermen Asus/C G si quebrara ahora la tierra, nos da igual Em D/F# los dos somos del mar, los dos somos la suerte Bm A G de sentirnos diferente a los demás D D/A# De solo corazón al centro añejo roble siente Asus/C G que si ríe bien pudiera ir más allá Em D/F# enmudecer la sal con besos y el poniente Bm A G no pusiera mi futuro en su mirar Bm A G Mientras quede el después de tu pelo danzando en el aire Bm A G no me pidas respeto perdiéndolo en horizontal D Am Pretendiendo quererte he mirado de más, a la noche le faltan estrellas Em D quizás con tu piel tendrán que rendir cuentas D Am Represento la fe y no he rezado jamás no hay olvido detrás de la noche de ayer Em A quédate, o al menos no te muevas Bm A G y el corazón me arde y el corazón INTRO: D Am G x2 Bm A G Mientras quede champán y el teléfono siga mojado Bm A G mientras sobre teatro, segundo papel me da igual Em A7 permíteme el azar, apaga el escenario D Am Pretendiendo quererte he mirado de más, a la noche le faltan estrellas Em D quizás con tu piel tendrán que rendir cuentas Represento la fe y no he rezado jamás no hay olvido detrás de la noche de ayer (E-F#) G D quédate, o al menos no te muevas D Am Pretendiendo quererte he mirado de más, a la noche le faltan estrellas Em A7sus2 quizás con tu piel tendrán que rendir cuentas Bm A G Y el corazón me arde y el corazón me arde Bm A G y el corazón me arde y el corazón (x2) OUTTRO
      D        Am... 
-------------------------------| 
-------------------------------| 
-------------------------------| 
-------------------------------| 
----5h7-9-9--9/7/5--3----------| 
--5----------------------------|

Compartilhe esta música: novo

QR Code
Copiar