A Verdade

Anderson Correia

Tom: F#m
F#m 

E|-----9-11----9---12----11----9-----| 
B|---10----10--------10----10--------| 
G|-11--------11--------11----11------|  (2x) 
D|-----------------------------------| 
A|-----------------------------------| 
E|-----------------------------------| 


Intro 2 F#m  F#m7M  F#m7  F#m6 
          E7  D7  C#7 


    F#m               F#m7M 
E|-----9-11p9----9-------9-11p9----9-| 
B|---10----------10----10----------10| 
G|-11---------11-----10---------10---| 
D|-----------------------------------| 
A|-----------------------------------| 
E|-----------------------------------| 


     F#m7              F#m6 
E|-----9-11p9----9-------9-11p9----9-| 
B|---10----------10----10----------10| 
G|--9----------9------8----------8---| 
D|-----------------------------------| 
A|-----------------------------------| 
E|-----------------------------------| 


     E7 
E|----7-7---7--10---9---7------------| 
B|---9-----9-9---9---9---------------| 
G|--7-----7-------7---7--------------| 
D|-----------------------------------| 
A|-----------------------------------| 
E|-----------------------------------| 


     D7 
E|----5-5---5---8---7---5------------| 
B|---7-----7-7---7---7---------------| 
G|--5-----5-------5---5--------------| 
D|-----------------------------------| 
A|-----------------------------------| 
E|-----------------------------------| 


     C#7 
E|----4-4---4---7---5------5---------| 
B|---6-----6-6---6----6--------6-----| 
G|--4-----4-------4-----4------------| 
D|-----------------------------------| 
A|-----------------------------------| 
E|-----------------------------------| 


Passagem 1 
F#m  F#m/E  D7M  B9(7) 


     F#m         F#m/E 
E|-----2---2-------2---2-------------| 
B|----2---2-------2---2--------------| 
G|---2---2---2---2---2---2-----------| 
D|--4-----------2--------------------| 
A|-----------------------------------| 
E|-----------------------------------| 


     D7M         B9(7) 
E|-----2---2-------2---2-------------| 
B|----2---2-------2---2--------------| 
G|---2---2---2---2---2---2-----------| 
D|--0--------------------------------| 
A|--------------2--------------------| 
E|-----------------------------------| 


( F#m  F#m/E  D7M  B9(7)  C#4  D7M ) 

Tocar uma vez e repetir durante a primeira parte 

     F#m            F#m/E 
E|--2----2----2----2----2----2------------| 
B|-----2----2---------2----2--------------| 
G|----2----2----2----2----2----2----------| 
D|--4----4----4----2----2----2------------| 
A|----------------------------------------| 
E|----------------------------------------| 


     D7M             B9(7)   C#4     D7M 
E|--2----2----2-----2-------2-------2-----| 
B|-----2----2----------2-------2----------| 
G|----2----2----2-----2-------2--------2--| 
D|--0----0----0---------------------------| 
A|------------------2-------4-------5-----| 
E|----------------------------------------| 
F#m F#m/E D7M B9(7) C#4 D7M Hoje eu vi a verdade F#m F#m/E D7M B9(7) C#4 D7M Coisas que nunca imaginei F#m F#m/E D7M B9(7) C#4 D7M Triste realidade F#m F#m/E D7M B9(7) C#4 D7M Tornando fútil o que te dei F#m F#m/E D7M B9(7) C#4 D7M Sonhos despedaçados F#m F#m/E D7M B9(7) C#4 D7M Jamais foram reais F#m F#m/E D7M B9(7) C#4 D7M Quis você sempre do meu lado F#m F#m/E D7M E hoje não te amo mais
Passagem 2 

     B9(7)   D7M/A   F#m/G# 
E|--2-------2-------2-----| 
B|-----2-------2----------| 
G|----2-------2--------2--| 
D|------------------------| 
A|--2-------0-------------| 
E|------------------4-----| 


( F#m  F#4/A  D7M  E ) 


     F#m             F#4/A 
E|-----------------------------------| 
B|--2----2----2-----2----2----2------| 
G|-----2----2----------4----4--------| 
D|----4----4----4-----4----4----4----| 
A|------------------0----0----0------| 
E|--2----2----2----------------------| 


     D7M             E 
E|--2----2----2----------------------| 
B|-----2----2-------0----2----3------| 
G|----2----2----2------1----1--------| 
D|--0----0----0-------2----2----2----| 
A|-----------------------------------| 
E|------------------0----0----0------| 
F#m F#4/A D7M E O que era belo inviolável F#m F#4/A D7M E Como um jardim que alguém plantou F#m F#4/A D7M E Se tornou sujo inflamável F#m F#4/A E com a verdade D7M E Se incendiou ( D9 E7 A G7 D7 E9 F#m )
     D9             E7 
E|--0----0----0----------------------| 
B|-----3----3-------0----0----0------| 
G|----2----2----2------1----1--------| 
D|--0----0----0-------0----0----0----| 
A|-----------------------------------| 
E|------------------0----0----0------| 


     A               G7 
E|-----------------------------------| 
B|--2----2----2-----3----3----3------| 
G|-----2----2----------4----4--------| 
D|----2----2----2-----3----3----3----| 
A|--0----0----0----------------------| 
E|------------------3----3----3------| 


     D7              E9 
E|-----------------------------------| 
B|--7----7----7-----7----7----7------| 
G|-----7----7----------9----9--------| 
D|----5----5----5-----9----9----9----| 
A|--5----5----5-----7----7----7------| 
E|-----------------------------------| 


     F#m 
E|------------------2----------------| 
B|--2----2----2----------2----2------| 
G|-----2----2----------2----2--------| 
D|----4----4----4-----4----4----4----| 
A|-----------------------------------| 
E|--2----2----2-----2----2----2------| 
D9 E7 Em meio a chama e cinzas A G7 Vi algo bom sobrar D7 E9 F#m Mas por tempos só deixei prá lá D9 E7 Mesmo sem esperanças A G7 Tive que resgatar D7 E9 O que ódio algum pode queimar ( F#m E ) ( F#m E ) ( F#m E ) ( F#m E ) ( F#m E D9 A ) ( F#m E D9 A ) ( F#m E D9 A ) ( F#m E G F#m ) ( D9 E7 A G7 D7 E9 F#m )
     D9              E7 
E|-----------------------------------| 
B|--5----5-----5----9----9-----9-----| 
G|-----7------7--------7------7------| 
D|----7------7--------9------9-------| 
A|--5----5----------7----7-----------| 
E|-----------------------------------| 


     A               G7 
E|-----------------------------------| 
B|--5----5-----5--- 3----3-----3-----| 
G|-----6------6--------4------4------| 
D|----7------7--------3------3-------| 
A|-----------------------------------| 
E|--5----5----------3----3-----------| 


     D7              E9 
E|-----------------------------------| 
B|--7----7----7-----7----7-----7-----| 
G|-----7-----7----------9-----9------| 
D|----5-----5----------9-----9-------| 
A|--5----5----------7----7-----------| 
E|-----------------------------------| 


     F#m 
E|------------------2----------------| 
B|--2----2----2----------2----2------| 
G|-----2----2----------2----2--------| 
D|----4----4----4-----4----4----4----| 
A|-----------------------------------| 
E|--2----2----2-----2----2----2------| 
D9 E7 Me enganei sobre nós A G7 Me enganei sobre odiar D7 E9 F#m Me enganei sobre deixar de amar D9 E7 Quanto tempo perdido A G7 Por egoismo não quis usar D7 E9 Quem sabe agora possamos conversar Intro 2 F#m F#m7M F#m7 F#m6 E7 D7 C#7
    F#m               F#m7M 
E|-----9-11p9----9-------9-11p9----9-| 
B|---10----------10----10----------10| 
G|-11---------11-----10---------10---| 
D|-----------------------------------| 
A|-----------------------------------| 
E|-----------------------------------| 


     F#m7              F#m6 
E|-----9-11p9----9-------9-11p9----9-| 
B|---10----------10----10----------10| 
G|--9----------9------8----------8---| 
D|-----------------------------------| 
A|-----------------------------------| 
E|-----------------------------------| 


     E7 
E|----7-7---7--10---9---7------------| 
B|---9-----9-9---9---9---------------| 
G|--7-----7-------7---7--------------| 
D|-----------------------------------| 
A|-----------------------------------| 
E|-----------------------------------| 


     D7 
E|----5-5---5---8---7---5------------| 
B|---7-----7-7---7---7---------------| 
G|--5-----5-------5---5--------------| 
D|-----------------------------------| 
A|-----------------------------------| 
E|-----------------------------------| 


     C#7 
E|----4-4---4---7---5------5---------| 
B|---6-----6-6---6----6--------6-----| 
G|--4-----4-------4-----4------------| 
D|-----------------------------------| 
A|-----------------------------------| 
E|-----------------------------------| 

Compartilhe esta música: novo

QR Code
Copiar