Tom: C
Intro: C9  D9  Em7 

Riff Intro 
       C9                 D9         Em7 
E|-------------------------------------------| 
B|---------6p3---6p3-------------------------| 
G|------3-----------------3h5-----5h7p5p3----| 
D|----5----------------3--3---------------3--| 
A|--6----------6-----------------------------| 
E|-------------------------------------------| 
Primeira Parte: C9 Mapeei a dedo tuas sardas D9 Contornei sem jeito tuas linhas Em7 Bm Que te entregam e desvendam o melhor em ti C9 Me perdi no céu das suas pintas D9 Me encontrei no céu da tua boca Em7 Tu é labirinto, rua sem saída A Me rendi a tua alma nua Pré-Refrão: Riff 1
         C9          G           D4        Em7   D4 
E|----6----6------6----6-------6----6-------------| 
B|----6------6----6------6-----6------6-----------| 
G|----3--3--------3--3---------5--5---------------| 
D|----5-----------3------------3------------------| 
A|----6-----------5-------------------------------| 
E|----------------6-------------------------------| 
C9 Vem cá G Congela o teu olhar no meu D4 Esconde que já percebeu Em7 D4 Que todo meu amor é teu amor C9 Riff 1 Então vem cá G Que nós até Caio escreveu D4 Parece que nos conheceu Em7 D4 E mel e girassóis te peço, só te peço
C9 D9 D4 Fica Em7 D9 Fica, me queira e queira ficar C9 D9 D4 Fica Em7 D9 Fica, me queira, queira
Primeira Parte: C9 Mapeei a dedo tuas sardas D9 Viajei nas tuas entrelinhas Em7 Bm Que te entregam e desvendam o melhor em ti C9 Me perdi no céu da sua boca D9 Me reencontrei nas suas curvas Em7 Você é labirinto, rua sem saída A Me rendi a tua alma nua Pré-Refrão: C9 Vem cá G Congela o teu olhar no meu D4 Esconde que já percebeu Em7 D4 Que todo meu amor é teu amor C9 Riff 1 Então vem cá G Que nós até Caio escreveu D4 Parece que nos conheceu Em7 D4 E mel e girassóis te peço, só te peço
C9 D9 D4 Fica Em7 D9 Fica, me queira e queira ficar C9 D9 D4 Fica Em7 Faz o que quiser de mim A C9 Contanto que não falte tempo pra me amar C9 D9 D4 Fica Em7 D9 Fica, me queira e queira ficar C9 D9 D4 Fica Em7 Faz o que quiser de mim A C9 Contanto que não falte tempo pra me amar
Final 3x: C9 D9 Em7 A Riff Final: C9 D9 Em7 A E|-------------------------------------| B|--6p3--6p3----------6p3--6p3---------| G|------------3h5---------------3-5----| D|-------------------------------------| A|-------------------------------------| E|-------------------------------------|

Compartilhe esta música: novo

QR Code
Copiar