Do You Believe In Magic

Aly & AJ

Tom: G
Intro: Dm, Em, F, Em, Dm, Em, F 

Verse: 
G                   C           F                          C 
  Do you believe in magic? In a young girls heart, how the music can free 
        F                        C             F                  C 
her whenever it starts and it's magic. If the music is groovy, it makes you 
                  F                    Dm                 Em          F 
feel happy like a old-time movie. I'll tell you 'bout the magic it'll free 
     Em                  G 
your soul, but it's like tryin' to tell a stranger 'bout rock n roll. 

(The 2nd and 3rd verses are the same as the 1st.) 

Solo: 
E|-------------------------------------------------------------------| 
B|-------------------------------------------------------------------| 
G|------------------------------------------0-----0------------------| 
D|---------0----0h2-0h2-0-------------0-0h2---0h2---0h2-0------------| 
A|----0--3---3------------3--0---0-3----------------------3--0--3----| 
E|--3--------------------------3-------------------------------------| 

E|-------------------------------------------------------------------| 
B|------------------------------------------3------------------------| 
G|------------------------------------0-2s4---2--0-0h2-0-----0-----0-| 
D|-------0h2-0---0--------------0-0h2--------------------0h2---0h2---| 
A|--3--0-------3---3--0---0-0h2--------------------------------------| 
E|----------------------3--------------------------------------------|

Compartilhe esta música: novo

QR Code
Copiar