Tom: D
INTRO: (D G D G) 
 
Sugestão: (imitação do teclado) 
e|-5-3--2----5-3--2--0-------3p0-3-3------3p0-3-3--| 
B|-3-3--3----3-3--3--3-------3---3-3------3---3-3--| 
G|-2-2--2----2-2--2--2--0-0--0---0-0--0-0-0---0-0--| 
D|-0-0--0----0-0--0--0--0-0------0-0--0-0-----0-0--| 
A|----------------------2-2-----------2-2----------| 
E|----------------------3-3-----------3-3----------| 
D Por que você é Flamengo E meu pai Botafogo? G O que significa 'Impávido Colosso'? D Por que os ossos doem Enquanto a gente dorme? A Por que os dentes caem? G D G Por onde os filhos saem? D Por que os dedos murcham Quando estou no banho? G Por que as ruas enchem Quando está chovendo? D Quanto é mil trilhões Vezes infinito? A Quem é Jesus Cristo? G D G Onde estão meus primos? D G Well, well, well... Gabriel D Well, well, well... A G Well D Por que o fogo queima? Por que a lua é branca? G Por que a Terra roda? Por que deitar agora? D Por que as cobras matam? Por que o vidro embaça? A Por que você se pinta? G D G Por que o tempo passa?
   D                  G 
e|-------0-2--3-2-0------| 
B|-----3------------3----| 
G|---2-------------------| 
D|-0---------------------| 
A|-----------------------| 
E|-----------------------|
D Por que que a gente espirra? Por que as unhas crescem? G Por que o sangue corre? Por que que a gente morre? D Do que é feita a nuvem? Do que é feita a neve? A Como é que se escreve Bb A G Reveillon? D G Well, well, well... Gabriel (4x) FINAL: D A/C# Bm A G F#m Em A D A/C# Bm A G Em D

Compartilhe esta música: novo

QR Code
Copiar