Tutorial

Métodos e macetes para se conseguir agilidade no seu instrumento.

Enviado por Bywolf

Esses são exercicios  muito simples, que devem ser feitos com bastante precisão.
Lembrem-se , para tocar um instrumento (independente do qual) , precisa -se de logica,imaginação e do principal.
Precisa gostar do que esta fazendo. 


Observem a tablatura:

d: 1 2 3 4 1 2 3 4 1 2 3 4 1 2 3 4 1 2 3 4 1 2 3 4 4 3 2 1 4 3 2 1 4 3 2 1 4 3 2 1 4 3 2 1 4 3 2 1 

p: v ^ v ^ v ^ v ^ v ^ v ^ v ^ v ^ v ^ v ^ v ^ v ^ v ^ v ^ v ^ v ^ v ^ v ^ v ^ v ^ v ^ v ^ v ^ v ^ 

e:|----------------------------------------1-2-3-4-4-3-2-1--------------------------------------------|
B:|--------------------------------1-2-3-4-----------------4-3-2-1------------------------------------|
G:|------------------------1-2-3-4---------------------------------4-3-2-1----------------------------|
D:|----------------1-2-3-4-------------------------------------------------4-3-2-1--------------------|
A:|--------1-2-3-4-----------------------------------------------------------------4-3-2-1------------|
E:|1-2-3-4---------------------------------------------------------------------------------4-3-2-1----|

Esse é um metodo muito simples de palhtada alternada.
Obs:Lembrem-se de  apertarem as cordas com firmeza.
E se vc tiver um violão, treine essas escalas com o violão pois assim vc ganha uma palhetada mais rapida 
na guitarra pois as cordas do violão são mais pesadas.

d:O dedo q vc vai usar. 
p:O movimento da palheta. v= palhetada para baixo ^=palhetada para cima
Obs: Isso vale para todos os exercicios.


Esse exercicio efeito usando só 2 dedos.


d 1 3 1 3 1 3 1 3 1 3 1 3 4 2 4 2 4 2 4 2 4 2 4 2 
p v ^ v ^...
e|--------------------1-3-4-2----------------------
B|----------------1-3---------4-2------------------
D|------------1-3-----------------4-2--------------
G|--------1-3-------------------------4-2----------
A|----1-3---------------------------------4-2------
E|1-3-----------------------------------------4-2--

d 2 4 2 4 2 4 2 4 2 4 2 4 5 3 5 3 5 3 5 3 5 3 5 3
p v ^ v ^...
e|--------------------2-4-5-3----------------------
B|----------------2-4---------5-3------------------
D|------------2-4-----------------5-3--------------
G|--------2-4-------------------------5-3----------
A|----2-4---------------------------------5-3------
E|2-4-----------------------------------------5-3--

Agora usando três dedos.

d  1 2 3 1 2 3 1 2 3 1 2 3 1 2 3 1 2 3   4 3 2 4 3 2 4 3 2 4 3 2 4 3 2
p  v ^ v ^...
e|-------------------------1-2-3---4-3-2---------------------------------------------2-3-4-5-4-3----------------------
B|--------------------1-2-3-------------4-3-2-----------------------------------2-3-4-----------5-4-3-----------------
G|---------------1-2-3-----------------------4-3-2-------------------------2-3-4---------------------5-4-3------------
D|----------1-2-3---------------------------------4-3-2---------------2-3-4-------------------------------5-4-3-------
A|-----1-2-3-------------------------------------------4-3-2-----2-3-4-----------------------------------------5-4-3--
E|1-2-3-----------------------------------------------------2-3-4-----------------------------------------------------

Usando os quatro dedos 
1234 1234 1234 1234 1234 1234 1234
v ^ v ^...
e|--------------------------------------------------------------------------
B|--------------------------------------------------------------------------
G|--------------------------------------------------------------------------
D|-------------------------------------------------------------1-2-3-4--etc-
A|-------------------------------1-2-3-4--5-6-7-8--9-10-11-12---------------
E|-1-2-3-4--5-6-7-8--9-10-11-12---------------------------------------------

Esse exercicio ja eh um pouco mais dificil pqvc tem q ir saltando para as outras cordas
mais nada impossivel, mais na minha opinião, é o q da mais trabalho no inicio.
   1 2 3 4
   v ^ v ^... 
e|---------------------------------------------------------------------------------------1-2-3-4---------------
B|------------------------------------------------------------------------1-2-3-4------------------------------
G|-----------------------------------------1-2-3-4---------1-2-3-4---------------------------------------------
D|-------------------------1-2-3-4----------------------------------------------------------------------2-3-4-5
A|---------1-2-3-4---------------------------------------------------------------------------------------------
E|-1-2-3-4---------1-2-3-4---------1-2-3-4---------1-2-3-4---------1-2-3-4--------1-2-3-4--------2-3-4-5-------


Esse é um exercicio q ajuda vc na variação de cordas
   v ^ v ^ ^ ^ ^ v ^ v v v v ^ v ^ ^ ^ ^ v ^ v v v v ^ v ^ ^ ^ ^ v ^ v ^ ^ 
   1 2 3 4 3 2 1 2 3 4 3 2 1 2 3 4 3 2 1 2 3 4 3 2 1 2 3 4 3 2 1 2 3 4 3 2
e|-------------------------------------------------------------------------
B|-------------------------------------------------------------------------
G|-------------3-4-5-6-----------------4-5-6-7-----------------5-6-7-8-----
D|-----------4---------5-------------5---------6-------------6---------7---
A|---------5-------------4---------6-------------5---------7-------------6-
E|-3-4-5-6-----------------4-5-6-7-----------------5-6-7-8-----------------

Bem é isso ai pessoal.Me desculpem pelas abreviações ou se tiver algum erro
 de portugues, pois levo mais jeito na guitarra 
do que na lingua portuguesa. 
E isso ai. Qualquer duvida ou sugestão mande um imail para [email protected] (naum leio imail sem identificação )
Treinem bastante!!
Anderson Schütz